Sound will begin in 5 seconds

American History Song 1

Chords
01234567891011121314151617181920212223
E
B
G
D
A
E
B
0 1 2 3 4 5 6 7 8 9 10 11 12 13 14 15 16 17 18 19 20 21 22 23
Song Science #1: How Pros Use 6 Chords to Write Hit Songs
(/) Slide Up  (\) Slide Down  (h) Hammer On  (p) Pull Off  (b) Bend (r) Release (v) Vibrato

Stave 1:

D|--------------------------
A|--------------------------
F|--------7--------6--------
C|--0--0-----0--0-----0--0--
G|--------------------------
C|--------------------------

Stave 2:

D|-------------------------
A|-------------------------
F|--9--------7--------6h7--
C|-----0--0-----0--0-------
G|-------------------------
C|-------------------------

Stave 3:

D|--------------------------
A|--------------------------
F|--------7--------6--------
C|--0--0-----0--0-----0--0--
G|--------------------------
C|--------------------------

Stave 4:

D|-------------------------
A|-------------------------
F|--9--------7--------7p6--
C|-----0--0-----0--0-------
G|-------------------------
C|-------------------------

Stave 5:

D|--------------------------
A|--------------------------
F|--------7--------6--------
C|--0--0-----0--0-----0--0--
G|--------------------------
C|--------------------------

Stave 6:

D|-------------------------
A|-------------------------
F|--9--------7--------6h7--
C|-----0--0-----0--0-------
G|-------------------------
C|-------------------------

Stave 7:

D|-----------------------
A|-----------------------
F|-----------------------
C|-----------------------
G|--5--4--2--0-----------
C|--------------2/4\2----

Stave 8:

D|---------------------------
A|---------------------------
F|---------------------------
C|---------------------0-----
G|----0--0--0--0--0----0-----
C|----0--0--0--0--0----0-----

Stave 9:

D|----------------------------
A|----------------------------
F|----------------------------
C|----------------7-----------
G|----5--5--5--5-----5--5--5--
C|----------------------------

Stave 10:

D|-------------------------
A|-------------------------
F|-------------------------
C|--------------7-----7h9--
G|--5--5--5--5-----5-------
C|-------------------------

Stave 11:

D|--------------------------
A|--------------------------
F|--------------------------
C|--------------5-----------
G|--4--4--4--4-----4--4--4--
C|--------------------------

Stave 12:

D|-----------------------
A|-----------------------
F|-----------------------
C|--7-----5-----4h5p4h5--
G|-----4-----4-----------
C|-----------------------

Stave 13:

D|-----------------------------------------------------
A|-----------------------------------------------------
F|--------11--------9--------12--------11--------9h11--
C|--0--0------0--0-----0--0------0--0------0--0--------
G|-----------------------------------------------------
C|-----------------------------------------------------

Stave 14:

D|----
A|----
F|----
C|----
G|----
C|----

http://www.guitartabcreator.com
Guitar Tab Creator is intended to store guitar tab created through the tool. It currently does not support in-line text editing. Any text you place in here will be lost. If you need to comment on your tab, please use the "Tab Notes" section located below.