Sound will begin in 5 seconds

Always There - Trompette solo

01234567891011121314151617181920212223
E
B
G
D
A
E
B
0 1 2 3 4 5 6 7 8 9 10 11 12 13 14 15 16 17 18 19 20 21 22 23
Song Science #1: How Pros Use 6 Chords to Write Hit Songs
(/) Slide Up  (\) Slide Down  (h) Hammer On  (p) Pull Off  (b) Bend (r) Release (v) Vibrato

Stave 1:

E|-----------------------------------------------------------------------------------------
B|-----------------------------4--4--4-----4--3-----3-----3--------------------------6--8--
G|--7--------5--------2--5-----------------------5-----5-----5--------------5--7--8--------
D|-----8--5--------3--------------------------------------------5-----5--7-----------------
A|-----------------------------------------------------------------------------------------
E|-----------------------------------------------------------------------------------------

Stave 2:

E|--10--10--8--8--6--6--5--5--5-----5-----13--13--------------------------------------11----------10--
B|-------------------------------8----------------13--13----------------------------------13----------
G|--------------------------------------------------------12--12--10--10--10--10--12----------12------
D|----------------------------------------------------------------------------------------------------
A|----------------------------------------------------------------------------------------------------
E|----------------------------------------------------------------------------------------------------

Stave 3:

E|--10--8--------------------15--13------13-----13-----------------------------------------------------
B|---------11--10--8--10-------------15-------------15--13----------13-----------------------------13--
G|----------------------------------------------------------15--12------12--10-------------10--12------
D|------------------------------------------------------------------------------10-----10--------------
A|-----------------------------------------------------------------------------------------------------
E|-----------------------------------------------------------------------------------------------------

Stave 4:

E|--------------------------------------------------
B|-----------------3-----------------------4--4--3--
G|--12--10--12--------5--3-----------3--------------
D|--------------------------5-----5-----5-----------
A|--------------------------------------------------
E|--------------------------------------------------

http://www.guitartabcreator.com
Guitar Tab Creator is intended to store guitar tab created through the tool. It currently does not support in-line text editing. Any text you place in here will be lost. If you need to comment on your tab, please use the "Tab Notes" section located below.