Sound will begin in 5 seconds

Kawaranai Mono

Chords
01234567891011121314151617181920212223
E
B
G
D
A
E
B
0 1 2 3 4 5 6 7 8 9 10 11 12 13 14 15 16 17 18 19 20 21 22 23
Song Science #1: How Pros Use 6 Chords to Write Hit Songs
(/) Slide Up  (\) Slide Down  (h) Hammer On  (p) Pull Off  (b) Bend (r) Release (v) Vibrato

Capo Fret 4

Stave 1:

E|--3-----------------3-----------------3--------------------------0--------------3-----------------3--------
B|-----------1--3-----------------3-----------------3-----6-----------------3--------------1--3--------------
G|--------0--------------------5-----------------5-----------------------5--------------0--------------------
D|--------------------------5-----------------5--------5--------5-----5-----------------------------------5--
A|--------------------------------------------------------0--------------------------------------------------
E|--1-----------------3-----------------0-----------------------------------------1-----------------3--------

Stave 2:

E|-----------3--------------------------0--------------------------------------------------------------------
B|-----3-----------------3-----6-----------------3--1-----1--0h1--------3-----------0h1--------3--------0h1--
G|--5-----------------5-----------------------5-----0----------------------2----------------------2----------
D|-----------------5--------5--------5-----5--------------3----------3--------3-------------3--------3-------
A|-----------------------------0-----------------------------------------------------------------------------
E|-----------0--------------------------------------1-------------1----------------------3-------------------

Stave 3:

E|---------------------------------------------------------------0-----------0----------------------------------
B|--------3-----------------1--0h1--------3--------0h1--------3-----------6--------3--------------------1--0h1--
G|-----------2--------0----------------------2----------------------0-----------------5-----------0-------------
D|-----3--------3-----------2----------2--------2----------2--------------------------------------------3-------
A|------------------------------------------------------0--------------------0----------------------------------
E|--3-----------------0-------------0-------------------------------------------------------3-----1-------------

Stave 4:

E|-----------------------------------------------------------------------------------------------0----------------0h1--
B|--------3--------0h1--------3--------0h1--------3-------------------5-----------5-----3-----3-----1--------1h3-------
G|-----------2-------------------2-------------------2-----4/5--------------4--------------0--------------0------------
D|-----3--------3----------3--------3----------3--------3----------5-----5-----5-----5---------------------------------
A|--------------------------------------------------------------3-----------------------3-----------3------------------
E|--1-------------------3-------------------3--------------------------------------------------------------------------

Stave 5:

E|--0----------0--------------0------------------------------------------------------------------------
B|-----3p1-----------------3-----6--5--3\1--------------------------1--1-----1-----1--0----------------
G|----------2--------0--5----------------------------0-----------------------------------2p0-----0-----
D|--0-------------------0----------------------2--------------------3-----------3-------------0--------
A|------------------------------------------3-----------3-------------------------------------------2--
E|----------------------------------0-------------------------1-----------1-----------3----------------

Stave 6:

E|--------0--1-----0--------------------------------------3--1-----0----------------------------------
B|--1--3--------------3--1--1--0--1--1-----------------1--------------3--1h3--------------------------
G|--0-----------------------------------------0-----0-------------------------------0-----------0-----
D|--------2-----------3-----------0--------2-----2--------2-----------3----------0-----0-----0-----0--
A|--------------------------------------0-------------------------------------------------3-----------
E|--0-----------1-----------3-----------------------0-----------1-------------3-----------------------

Stave 7:

E|--------------0-----------3--3-------5--3-----------------------0--------------0-----------------------
B|--------------0--------1----------------------1--1-----------1-----3--3-----1--------------1-----------
G|--------0-----1--------2--------2/5-----------------------0-----------------------------0-----------0--
D|-----0-----0--0----------------------------------------2-----------------3-----------2-----------0-----
A|--------------2--------0----------------------------3-----------------------------3-----------2--------
E|--3-----------0----------------------------1--------------------3--------------------------------------

Stave 8:

E|-----3--3-------5--3----------------------0--------------------------------------
B|--1----------------------1--1--------1h3-----3--3-----1--1-----------1-----------
G|--2--------2/5--------------------0-------------------------------0-----------0--
D|-------------------------------3----------0-----------3--------2-----------0-----
A|--0---------------------------------------------------------3-----------2--------
E|----------------------1----------------------------3-----------------------------

Stave 9:

E|-----3--3-------5--3-----------------------0--------------0-----------------------
B|--1----------------------1--1-----------1-----3--3-----1--------------1-----------
G|--2--------2/5-----------------------0-----------------------------0-----------0--
D|----------------------------------2-----------------3-----------2-----------0-----
A|--0----------------------------3-----------------------------3-----------2--------
E|----------------------1--------------------3--------------------------------------

Stave 10:

E|-----3--3-------5--3-----------------------0--------------
B|--1--------2/5-----------1--1-----------------3--3-----1--
G|--2----------------------------------0--0-----------------
D|----------------------------------3--------0-----------3--
A|--0----------------------------3--------------------------
E|----------------------1-----------------------------3-----

http://www.guitartabcreator.com
Guitar Tab Creator is intended to store guitar tab created through the tool. It currently does not support in-line text editing. Any text you place in here will be lost. If you need to comment on your tab, please use the "Tab Notes" section located below.