Sound will begin in 5 seconds

Down on the Ground and Tough, I Get Up

Chords
01234567891011121314151617181920212223
E
B
G
D
A
E
B
0 1 2 3 4 5 6 7 8 9 10 11 12 13 14 15 16 17 18 19 20 21 22 23
Song Science #1: How Pros Use 6 Chords to Write Hit Songs
(/) Slide Up  (\) Slide Down  (h) Hammer On  (p) Pull Off  (b) Bend (r) Release (v) Vibrato

Stave 1:

G |-----5--------5--------------5--------5--------------------5--------5-----------------------5--------5-----
Eb|-----4--------4--------------4--------4--------------------4--------4-----------------------4--------4-----
Ab|--------------------------------------------------2-----------------------------7--------------------------
Db|--0-----0--2-----2--4--3--0-----0--2-----2--4--3-----3--0-----0--2-----2--5--4-----3--4--0-----0--2-----2--

Stave 2:

G |-----------4--------------
Eb|--------------4-----------
Ab|-----------------5-----8--
Db|--2--4--5-----------4-----

Stave 3:

G |--------------------------------------------------------
Eb|-----0-----0-----0--------0-----------0--------0--------
Ab|--5-----5-----3-----3--1-----1--1--3-----3--5-----5--5--
Db|--------------------------------------------------------

Stave 4:

G |-----5--
Eb|-----4--
Ab|--------
Db|--0-----

http://www.guitartabcreator.com
Guitar Tab Creator is intended to store guitar tab created through the tool. It currently does not support in-line text editing. Any text you place in here will be lost. If you need to comment on your tab, please use the "Tab Notes" section located below.