Sound will begin in 5 seconds

Counting stars

Chords
01234567891011121314151617181920212223
E
B
G
D
A
E
B
0 1 2 3 4 5 6 7 8 9 10 11 12 13 14 15 16 17 18 19 20 21 22 23
Song Science #1: How Pros Use 6 Chords to Write Hit Songs
(/) Slide Up  (\) Slide Down  (h) Hammer On  (p) Pull Off  (b) Bend (r) Release (v) Vibrato

Stave 1:

E|---------------------------------------
B|---------------------------------------
G|---------------------------------------
D|-4-6-9-4-4-6-4---6-4-4-6-6-6-4---6-----
A|---------------7---------------7---4-7-
E|---------------------------------------

Stave 2:

E|-----------------------------------------------------------
B|-----------------------------------------------------------
G|-----------------------------------------------------------
D|---4-6-9-4-4-6-4---6-4-4-6-6-6-4---6-4-4-------6-4-4-------
A|-7---------------7---------------7-------7-7-7-------7-7\4-
E|-----------------------------------------------------------

Stave 3:

E|-16-16-19----16-19----16-19------------------------------------------------------------------
B|----------19-------19-------19---------------------------------------------------------------
G|-----------------------------------------------------------4-4-------------------------------
D|-------------------------------6-6-4-6-6-4-6-6-6-4-6-6-6-6-----4-6-4-2---6-4-4-6-4-2---6-4-4-
A|-----------------------------------------------------------------------4-------------4-------
E|---------------------------------------------------------------------------------------------

Stave 4:

E|-----------------------------------------------------
B|-----------------------------------------------------
G|-----------------------------------------------------
D|-6-6-4-6-6-6-6-6-4-6-6-6-6-4-2---6-4-4-6-4-2---6-4-4-
A|-------------------------------4-------------4-------
E|-----------------------------------------------------

Stave 5:

E|----------------------------------------------------------------------------------
B|-------12-12---------------------------------12-12--------------------------------
G|-6-6-9-------11-9-9-11-11-11-8-8-6-8-6-6-6-9-------11-9-9-11-11-9-8-8-6-8-6-6-4-6-
D|----------------------------------------------------------------------------------
A|----------------------------------------------------------------------------------
E|----------------------------------------------------------------------------------

Stave 6:

E|---------------------------------------------
B|---------------------------------------------
G|-6-4-6-4-6-4-6-4-6-4-6-6-4-------------------
D|---------------------------6-4-2-4-4-4-2-----
A|-----------------------------------------4-2-
E|---------------------------------------------

Stave 7:

E|---------------------------------------------------------------------------------
B|---------------------------------------------------------------------------------
G|---------------------------------------------------------------------------------
D|-4-6-9-4-4-6-4---6-4-4-6-6-4---6-------4-6-9-4-4-6-4---6-4-4-6-6-6-4---6-4-4-----
A|---------------7-------------7---4-7-7---------------7---------------7-------7-7-
E|---------------------------------------------------------------------------------

Stave 8:

E|-------------------------------------------------------------------------------
B|-------12----------------------------------------------------------12----------
G|-11-13----11-11-13-11-9-11-11-11-13-13-13-11-9-11-11-9-9-9-9-11-13----11-11-13-
D|-------------------------------------------------------------------------------
A|-------------------------------------------------------------------------------
E|-------------------------------------------------------------------------------

Stave 9:

E|-----------------------------------------------
B|--------------------------------------------11-
G|-11-9-11-11-11-13-13-13-11-9-13-11-13-11-11----
D|-----------------------------------------------
A|-----------------------------------------------
E|-----------------------------------------------

Stave 10:

E|------------------------------------------------------------------------
B|---------------------------------------------------------------12-12----
G|-9-9-----------------13-13-11-13-13-11-13-13-13-11-13-13-13-13-------11-
D|-----11-9-11-9-4-7-4----------------------------------------------------
A|------------------------------------------------------------------------
E|------------------------------------------------------------------------

Stave 11:

E|--------------------------------------------------------------------
B|------------------------------------11--------------9---------------
G|-13-11-9----13-11-11-13-11-9-11-9-9-9--9-9-13-13-13-11-9-9-13-13-13-
D|---------11---------------------9-9---------------------------------
A|--------------------------------------------------------------------
E|--------------------------------------------------------------------

Stave 12:

E|-----------------------------------------
B|-----------------------------------------
G|-13-11-9----13-11-11-13-11-9----13-11-11-
D|---------11------------------11----------
A|-----------------------------------------
E|-----------------------------------------

Stave 13:

E|----------19-19-------------------------------------------
B|-14-14/17-------19-17-17-19-19-17-16-16-14-16-14-14-12-14-
G|----------------------------------------------------------
D|----------------------------------------------------------
A|----------------------------------------------------------
E|----------------------------------------------------------

Stave 14:

E|----------------------------------------------------------------
B|-14-12-14-12-14-12-14-12-14-12-14-12-12-------------------------
G|----------------------------------------11-11-9-11-11-11-9------
D|-----------------------------------------------------------11-9-
A|----------------------------------------------------------------
E|----------------------------------------------------------------

Stave 15:

E|------------------------------------------------------------------------------------------------
B|-------12----------------------------------------------------------------12---------------------
G|-11-13----11-11-13-11-9-11-11-11-11-13-13-13-11-9-11-11-9----9-9-9-11-13----11-11-13-11-9-11-11-
D|----------------------------------------------------------11------------------------------------
A|------------------------------------------------------------------------------------------------
E|------------------------------------------------------------------------------------------------

Stave 16:

E|-------------------------------
B|-------------------------------
G|-11-13-13-13-11-9-13-11-9----9-
D|--------------------------11---
A|-------------------------------
E|-------------------------------

Stave 17:

E|----16-19-------16-------------------16-17-16-------------------------------16-19-------16-
B|-19-------19-19----19-17-19-19-19-19----------19-17-19-19-17----17-19-19-19-------19-19----
G|-------------------------------------------------------------18----------------------------
D|-------------------------------------------------------------------------------------------
A|-------------------------------------------------------------------------------------------
E|-------------------------------------------------------------------------------------------

Stave 18:

E|-------------------16-17-16-------------------------
B|-19-17-19-19-19-19----------19-17-19-19-17----17----
G|-------------------------------------------18----18-
D|----------------------------------------------------
A|----------------------------------------------------
E|----------------------------------------------------

Stave 19:

E|---------------------------------------------------------
B|-5-4-----5-4---5-5-4---5-4-----5-4---5-5-4-------5-5-4---
G|-----6-4-----6-------6-----6-4-----6-------6-4-4-------6-
D|---------------------------------------------------------
A|---------------------------------------------------------
E|---------------------------------------------------------

Stave 20:

E|-------------------------------------------------------------------------------------------
B|-17-16-------17-16----17-17-17----------17-17-16----17-16-------17-16----17-17-16----------
G|-------18-16-------18----------18-18-16----------18-------18-16-------18----------18-16-16-
D|-------------------------------------------------------------------------------------------
A|-------------------------------------------------------------------------------------------
E|-------------------------------------------------------------------------------------------

Stave 21:

E|-------------
B|-17-17-16----
G|----------18-
D|-------------
A|-------------
E|-------------

Stave 22:

E|-----------------------
B|-----------------------
G|-6-4-------------------
D|-----4-4-2-4-4-4-2-----
A|-------------------4-2-
E|-----------------------

Stave 23:

E|---------------------------------------------12-------------------------------------------------
B|---------------------------------------11-13----11-11-13-11-9-11-11-11-11-13-13-13-11-9-11-11-9-
G|------------------------------------------------------------------------------------------------
D|-4-6-9-4-4-6-4---6-4-4-6-6-6-4---6--------------------------------------------------------------
A|---------------7---------------7---4-7----------------------------------------------------------
E|------------------------------------------------------------------------------------------------

Stave 24:

E|------
B|----9-
G|-11---
D|------
A|------
E|------

Stave 25:

E|----16-19-------16-------------------16-17-16----------------------------16-19-------16-------
B|-19-------19-19----19-17-19-19-19-19----------19-17-19-17----17-19-19-19-------19-19----19-17-
G|----------------------------------------------------------18----------------------------------
D|----------------------------------------------------------------------------------------------
A|----------------------------------------------------------------------------------------------
E|----------------------------------------------------------------------------------------------

Stave 26:

E|----------16-17-16-------------------------------
B|-19-19-19----------19-17-19-19-19-19-17----17----
G|----------------------------------------18----18-
D|-------------------------------------------------
A|-------------------------------------------------
E|-------------------------------------------------

Stave 27:

E|----------------------------
B|-------17----------17-16----
G|-16-18----18-16-18-------18-
D|----------------------------
A|----------------------------
E|----------------------------

http://www.guitartabcreator.com
Guitar Tab Creator is intended to store guitar tab created through the tool. It currently does not support in-line text editing. Any text you place in here will be lost. If you need to comment on your tab, please use the "Tab Notes" section located below.