Sound will begin in 5 seconds

Secreto De Amor Requinto

Chords
01234567891011121314151617181920212223
E
B
G
D
A
E
B
0 1 2 3 4 5 6 7 8 9 10 11 12 13 14 15 16 17 18 19 20 21 22 23
Song Science #1: How Pros Use 6 Chords to Write Hit Songs
(/) Slide Up  (\) Slide Down  (h) Hammer On  (p) Pull Off  (b) Bend (r) Release (v) Vibrato

Stave 1:

E|----------------------10--9--10--5--6h8--3--5h6--1--3h5--0--------------1--
B|------------------10-------------6--8----5--6----3--5----2-----------3-----
G|----------5--5h7--10--10--9--10-----------------------------------2--------
D|---------------------------------------------------------------0-----------
A|--0--5h7-------------------------------------------------------------------
E|---------------------------------------------------------------------------

Stave 2:

E|-----------5p3-------------------------3-----------0h1--3-----6--------------------------------------0--
B|--------3-------3--6p3--------------5-----------3-------5--5--5-----------2--2-----3--------------2-----
G|-----3---------------------------3-----------2-------------------------0--------0--0--0--------0--------
D|------------------------------5-----------0-------------------------2-----------------------2-----------
A|---------------------------3-------------------------------------0-----------------------0--------------
E|--3---------------------3-------------------------------------------------------------------------------

Stave 3:

E|-----------0h1-----3-----5--
B|--------3-------3--5--5--6--
G|-----2----------------------
D|--0-------------------------
A|----------------------------
E|----------------------------

http://www.guitartabcreator.com
Guitar Tab Creator is intended to store guitar tab created through the tool. It currently does not support in-line text editing. Any text you place in here will be lost. If you need to comment on your tab, please use the "Tab Notes" section located below.