american women solo lesson

Chords

01234567891011121314151617181920212223
E
B
G
D
A
E
B
0 1 2 3 4 5 6 7 8 9 10 11 12 13 14 15 16 17 18 19 20 21 22 23
(/) Slide Up  (\) Slide Down  (h) Hammer On  (p) Pull Off  (b) Bend (r) Release (v) Vibrato

Stave 1:

E|----------------------------------------------------------------------------------------------------------------------------
B|------------------------------------------------------------14b15--15-------------------14b15--14b15--14b15--15-------------
G|--11b13r11--9--11--9--------14b16r14--12--14--12--14-----------------------12h13-------------------------------------12h13--
D|-----------------------------------------------------------------------14----------------------------------------14---------
A|----------------------------------------------------------------------------------------------------------------------------
E|----------------------------------------------------------------------------------------------------------------------------

Stave 2:

E|--10h12--12--10h12--12--10h12-----15--17--17b19--17b19r17--15--17--15b16-------------------------------------------------------------
B|--------------------------------------------------------------------------17-----15p14p12--14--12--11b12--------11b12--11b12--11b12--
G|-------------------------------------------------------------------------------------------------------------------------------------
D|-------------------------------------------------------------------------------------------------------------------------------------
A|-------------------------------------------------------------------------------------------------------------------------------------
E|-------------------------------------------------------------------------------------------------------------------------------------

Stave 3:

E|----------------------------------------------------------------
B|--12--14--14h15p14--12--12--14--14b15--------14--15--15b17------
G|----------------------------------------------------------------
D|----------------------------------------------------------------
A|------------------------------------------------------------16--
E|----------------------------------------------------------------

							http://www.guitartabcreator.com
Instruments
{"strings":[[[".",".",".",".",".",".",".",".","_","_",".",".",".",".",".",".",".",".",".","_","_",".",".",".",".",".",".",".",".","_","_",".",".",".",".",".",".",".",".",".",".",".",".",".","."],[".",".",".",".",".",".",".",".","_","_",".",".",".",".",".",".",".",".",".","_","_",14,"b",15,15,".",".",".",".","_","_",14,"b",15,14,"b",15,14,"b",15,15,".",".",".","."],[11,"b",13,"r",11,9,11,9,"_","_",14,"b",16,"r",14,12,14,12,14,"_","_",".",".",".",".",".",12,"h",13,"_","_",".",".",".",".",".",".",".",".",".",".",".",12,"h",13],[".",".",".",".",".",".",".",".","_","_",".",".",".",".",".",".",".",".",".","_","_",".",".",".",".",14,".",".",".","_","_",".",".",".",".",".",".",".",".",".",".",14,".",".","."],[".",".",".",".",".",".",".",".","_","_",".",".",".",".",".",".",".",".",".","_","_",".",".",".",".",".",".",".",".","_","_",".",".",".",".",".",".",".",".",".",".",".",".",".","."],[".",".",".",".",".",".",".",".","_","_",".",".",".",".",".",".",".",".",".","_","_",".",".",".",".",".",".",".",".","_","_",".",".",".",".",".",".",".",".",".",".",".",".",".","."]],[[10,"h",12,12,10,"h",12,12,10,"h",12,"_",15,17,17,"b",19,17,"b",19,"r",17,15,17,15,"b",16,".","_",".",".",".",".",".",".",".",".",".",".","_","_",".",".",".",".",".",".",".",".","."],[".",".",".",".",".",".",".",".",".",".",".","_",".",".",".",".",".",".",".",".",".",".",".",".",".",".",".",17,"_",15,"p",14,"p",12,14,12,11,"b",12,"_","_",11,"b",12,11,"b",12,11,"b",12],[".",".",".",".",".",".",".",".",".",".",".","_",".",".",".",".",".",".",".",".",".",".",".",".",".",".",".",".","_",".",".",".",".",".",".",".",".",".",".","_","_",".",".",".",".",".",".",".",".","."],[".",".",".",".",".",".",".",".",".",".",".","_",".",".",".",".",".",".",".",".",".",".",".",".",".",".",".",".","_",".",".",".",".",".",".",".",".",".",".","_","_",".",".",".",".",".",".",".",".","."],[".",".",".",".",".",".",".",".",".",".",".","_",".",".",".",".",".",".",".",".",".",".",".",".",".",".",".",".","_",".",".",".",".",".",".",".",".",".",".","_","_",".",".",".",".",".",".",".",".","."],[".",".",".",".",".",".",".",".",".",".",".","_",".",".",".",".",".",".",".",".",".",".",".",".",".",".",".",".","_",".",".",".",".",".",".",".",".",".",".","_","_",".",".",".",".",".",".",".",".","."]],[[".",".",".",".",".",".",".",".",".",".",".",".",".","_","_",".",".",".",".",".","."],[12,14,14,"h",15,"p",14,12,12,14,14,"b",15,"_","_",14,15,15,"b",17,"."],[".",".",".",".",".",".",".",".",".",".",".",".",".","_","_",".",".",".",".",".","."],[".",".",".",".",".",".",".",".",".",".",".",".",".","_","_",".",".",".",".",".","."],[".",".",".",".",".",".",".",".",".",".",".",".",".","_","_",".",".",".",".",".",16],[".",".",".",".",".",".",".",".",".",".",".",".",".","_","_",".",".",".",".",".","."]]],"numberofstrings":6,"notes":["E","B","G","D","A","E"],"capo":0,"stringnotes":["E3","B2","G2","D2","A1","E1"],"comments":["Stave 1:","Stave 2:","Stave 3:"],"timing":[[null,null,null,null,null,null,null,null,null,null,"W",null,"W",null,"W","W","W","W","W",null,null,"W",null,"W","W","W","W","W","W",null,null,"W",null,"W","W",null,"W","W",null,"W","W","W","W",null,"W"],["W",null,"W","W","W",null,"W","W","W",null,"W",null,"W","W","W",null,"W","W",null,"W",null,"W","W","W","W",null,"W","W",null,"W",null,"W",null,"W","W","W","W",null,"W",null,null,"W",null,"W","W",null,"W","W",null,"W"],["W","W","W",null,"W",null,"W","W","W","W","W",null,"W",null,null,"W","W","W",null,"W","W"]],"timingvisible":false,"tabcounter":21,"stave":2,"totalstaves":3,"instrument":"6guitar","selectedtuning":"6guitar","version":"13"}

Member for

1 week 5 days
Submitted by 6 string kid on Mon, 2020-06-29 13:08