Sound will begin in 5 seconds

rude

01234567891011121314151617181920212223
E
B
G
D
A
E
B
0 1 2 3 4 5 6 7 8 9 10 11 12 13 14 15 16 17 18 19 20 21 22 23
Song Science #1: How Pros Use 6 Chords to Write Hit Songs
(/) Slide Up  (\) Slide Down  (h) Hammer On  (p) Pull Off  (b) Bend (r) Release (v) Vibrato

Stave 1:

G|-------------------------------------------------------------------------------------------------
D|--------4--4--4\6--6-----6--------6--6--6\8-----------------4--4--4\6--6-----6--------6--6--6\8--
A|----------------------6-----4--4------------------------------------------6-----4--4-------------
E|--2--2---------------------------------------4--4--2-----2---------------------------------------

Stave 2:

G|------------------------------------------------------6--5--3--
D|-------------------------------------3--4--6p8--6--8-----------
A|--3--4--3-----------------------8/1----------------------------
E|-----------6--4--2-----4-----1---------------------------------

Stave 3:

G|------------------------------------------------------------------------------------------------------
D|--------4-----4--6--6-----6--------6--6--6--8-----------------4--4--4\6-----6--4--6--------6--6--6\8--
A|-----------4-----------6-----4--4--------------4-----4-------------------------------4--4-------------
E|--2--2--------------------------------------------4-----2--2------------------------------------------

Stave 4:

G|--------------------------------
D|--------------------------------
A|--3--4--3--------------4--------
E|-----------6--4--2--2-----4--4--

http://www.guitartabcreator.com
Guitar Tab Creator is intended to store guitar tab created through the tool. It currently does not support in-line text editing. Any text you place in here will be lost. If you need to comment on your tab, please use the "Tab Notes" section located below.