Sound will begin in 5 seconds

My Vendetta

Chords
01234567891011121314151617181920212223
E
B
G
D
A
E
B
0 1 2 3 4 5 6 7 8 9 10 11 12 13 14 15 16 17 18 19 20 21 22 23
Song Science #1: How Pros Use 6 Chords to Write Hit Songs
(/) Slide Up  (\) Slide Down  (h) Hammer On  (p) Pull Off  (b) Bend (r) Release (v) Vibrato

Stave 1:

D|-----------------------------------------------------------------
A|-----------------------------------------------------------------
F|-----------------------------------------------------------------
C|-----------------------------------------------------------------
G|-------------------------------------------------3---------------
C|-0-0-0-0-7h8-0-0-0-0-7h8-0-0-2h3-0-0-0-0-7h8-0-0---0-0-7-0-0-3h7-

Stave 2:

D|---------------------------------------------------
A|---------------------------------------------------
F|---------------------------------------------------
C|---------------------------------------------------
G|---------------------------------------------0-0-0-
C|-0-0-0-0-7h8-0-0-0-0-7h8-0-0-2h3-0-0-0-0-7h8-0-0-0-

Stave 3:

D|----------------------------------------------------------------------
A|----------------------------------------------------------------------
F|----------------------------------------------------------------------
C|----------------------------------------------------------------------
G|------------------------------------------------------3---------------
C|------0-0-0-0-7h8-0-0-0-0-7h8-0-0-2h3-0-0-0-0-7h8-0-0---0-0-7-0-0-3h7-

Stave 4:

D|------------------------------------------------------------------
A|------------------------------------------------------------------
F|------------------------------------------------------------------
C|------------------------------------------------------------------
G|------------------------------------------------------------------
C|-0-0-0-0-7h8-0-0-0-0-7-8-0-0-2h3-8-7-0-7-0-0-5-7-0-0-0-0-10-0-7-8-

Stave 5:

D|-----------------------------------------------------------------
A|-----------------------------------------------------------------
F|-----------------------------------------------------------------
C|-----------------------------------------------------------------
G|-----------------------------------------------------------------
C|-0-0-0-0-7h8-0-0-0-0-7h8-0-0-2h3-0-0-0-0-7h8-0-0-3p2-0-2-0-0-2h3-

Stave 6:

D|-----------------------------------------------------------------
A|-----------------------------------------------------------------
F|-----------------------------------------------------------------
C|-----------------------------------------------------------------
G|---------------------------------3-3-3-3-3-3-3-3-8-8-8-8-7-7-7-7-
C|-0-0-0-0-7h8-0-0-0-0-7h8-0-0-2h3---------------------------------

Stave 7:

D|---------------------------------------------------------------------------------
A|---------------------------------------------------------------------------------
F|---------------------------------------------------------------------------------
C|---------------------------------------------------------------------------------
G|---5---------5-----5---5-----------------------5---------5-----5-8-8-----7-7-----
C|-0---0-0-0-0---0-0---0---0-0-3p0-0-0-3p0-3h7-0---0-0-0-0---0-0---8-8-0-0-8-8-0-0-

Stave 8:

D|-----------------------------------------------------------------------------------
A|-----------------------------------------------------------------------------------
F|-----------------------------------------------------------------------------------
C|-----------------------------------------------------------------------------------
G|---5---------5-----5---5-----------------------5---------5-----5-8-8-----8--8------
C|-0---0-0-0-0---0-0---0---0-0-3p0-0-0-3p0-3h7-0---0-0-0-0---0-0---8-8-0-0-10-10-0-0-

Stave 9:

D|-------------------------------------------------------------------
A|-------------------------------------------------------------------
F|-------------------------------------------------------------------
C|-7-7-7-7-7-7-7-7-7-7-7-7-7-7-7-7-----------------------------------
G|-5-5-5-5-5-5-5-5-5-5-5-5-5-5-5-5-3-3-3-3-3-3-3-3-1-1-1-1-1-1-1-1---
C|---------------------------------3-3-3-3-3-3-3-3-1-1-1-1-1-1-1-1---

Stave 10:

D|-----------------------------------------------------------------
A|-----------------------------------------------------------------
F|-----------------------------------------------------------------
C|-7-7-7-7-7-7-7-7-7-7-7-7-7-7-7-7---------------------------------
G|-5-5-5-5-5-5-5-5-5-5-5-5-5-5-5-5-5-5-5-5-5-5-5-5-8-8-8-8-8-8-8-8-
C|---------------------------------5-5-5-5-5-5-5-5-8-8-8-8-8-8-8-8-

Stave 11:

D|--------------------------------------
A|--------------------------------------
F|--------------------------------------
C|--------------------------------------
G|------------------------8-8-x-x-2-2-3-
C|-0----------------------8-8-x-x-2-2-3-

Stave 12:

D|-----------------------------------------------------------------
A|-----------------------------------------------------------------
F|-----------------------------------------------------------------
C|-----------------------------------------------------------------
G|-----------------------------------------------------------------
C|-0-0-0-0-3p0-0-0-0-0-3p0-0-0-3p0-0-0-0-0-3p0-0-0-5p3-0-0-2-0-2h3-

Stave 13:

D|-----------------------------------------------------------------
A|-----------------------------------------------------------------
F|-----------------------------------------------------------------
C|-----------------------------------------------------------------
G|---------------------------------3-3-3-3-3-3-3-3-8-8-8-8-7-7-7-7-
C|-0-0-0-0-3p0-0-0-0-0-3p0-0-0-3p0---------------------------------

Stave 14:

D|-----------------------------------------------------
A|-----------------------------------------------------
F|-----------------------------------------------------
C|-----------------------------------------------------
G|-0---------------------------------------------------
C|-0----0-0-0----0----0----0-0----0-0----0-0-0-0-0-0-0-

Stave 15:

D|-----------------------------------------
A|-----------------------------------------
F|-----------------------------------------
C|-----------------------------------------
G|-0--------------------5----5----1--------
C|-0----0-0-0----0----0-5----5----1----3b3-

Stave 16:

D|------------------------------------
A|------------------------------------
F|------------------------------------
C|------------------------------------
G|-0-----------------------3----7-7-8-
C|-0----0-0-0-------0----0-3----7-7-8-

http://www.guitartabcreator.com
Guitar Tab Creator is intended to store guitar tab created through the tool. It currently does not support in-line text editing. Any text you place in here will be lost. If you need to comment on your tab, please use the "Tab Notes" section located below.