Fireworks not thunder

Chords

01234567891011121314151617181920212223
E
B
G
D
A
E
B
0 1 2 3 4 5 6 7 8 9 10 11 12 13 14 15 16 17 18 19 20 21 22 23
(/) Slide Up  (\) Slide Down  (h) Hammer On  (p) Pull Off  (b) Bend (r) Release (v) Vibrato

Bass Intro and stuff

E|--------------------------------------
B|--------------------------------------
G|--------------------------------------
D|--------------------------------------
A|-----------2-----------------3-----0--
E|--3-----------------0-----------------

Stave 2:

E|-----------------------------------------------------------
B|-----------------------------------------------------------
G|--4--4--5--5--7--7--5--------------------------------------
D|--5--5--7--7--9--9--7--------------------------------------
A|-----------------------------7--------8-----------------5--
E|-----------------------------------------------8-----------

Stave 3:

E|-----------------------------------------------------------
B|-----------------------------------------------------------
G|-----------------------------------------------------------
D|-----------------------------------------------------------
A|-----------------------------7--------8-----------------5--
E|--3--3--5--5--7--7--5--5-----------------------8-----------

Stave 4:

E|--------------------
B|--------------------
G|--------------------
D|-------5h7/9--7--5--
A|--5h7---------------
E|--------------------

Stave 5:

E|--
B|--
G|--
D|--
A|--
E|--

							http://www.guitartabcreator.com
Instruments
{"strings":[[[".","_","_",".","_","_",".","_","_",".","_","."],[".","_","_",".","_","_",".","_","_",".","_","."],[".","_","_",".","_","_",".","_","_",".","_","."],[".","_","_",".","_","_",".","_","_",".","_","."],[".","_","_",2,"_","_",".","_","_",3,"_",0],[3,"_","_",".","_","_",0,"_","_",".","_","."]],[[".",".",".",".",".",".",".","_","_",".","_","_",".","_","_",".","_","_","."],[".",".",".",".",".",".",".","_","_",".","_","_",".","_","_",".","_","_","."],[4,4,5,5,7,7,5,"_","_",".","_","_",".","_","_",".","_","_","."],[5,5,7,7,9,9,7,"_","_",".","_","_",".","_","_",".","_","_","."],[".",".",".",".",".",".",".","_","_",7,"_","_",8,"_","_",".","_","_",5],[".",".",".",".",".",".",".","_","_",".","_","_",".","_","_",8,"_","_","."]],[[".",".",".",".",".",".",".",".","_",".","_","_",".","_","_",".","_","_","."],[".",".",".",".",".",".",".",".","_",".","_","_",".","_","_",".","_","_","."],[".",".",".",".",".",".",".",".","_",".","_","_",".","_","_",".","_","_","."],[".",".",".",".",".",".",".",".","_",".","_","_",".","_","_",".","_","_","."],[".",".",".",".",".",".",".",".","_",7,"_","_",8,"_","_",".","_","_",5],[3,3,5,5,7,7,5,5,"_",".","_","_",".","_","_",8,"_","_","."]],[[".",".",".",".",".",".",".",".",".","."],[".",".",".",".",".",".",".",".",".","."],[".",".",".",".",".",".",".",".",".","."],[".",".",".",5,"h",7,"/",9,7,5],[5,"h",7,".",".",".",".",".",".","."],[".",".",".",".",".",".",".",".",".","."]],[[],[],[],[],[],[]]],"numberofstrings":6,"notes":["E","B","G","D","A","E","B"],"capo":0,"stringnotes":["E4","B3","G3","D3","A2","E2"],"comments":["Bass Intro and stuff","Stave 2:","Stave 3:","Stave 4:","Stave 5:","Stave 6:"],"timing":[["W","W",null,"W","W","W","W",null,null,"W",null,"W"],["W","W","W","W","W","W","W","W",null,"W","W",null,"W","W",null,"W","W",null,"W"],["W","W","W","W","W","W","W","W",null,"W","W",null,"W",null,null,"W",null,null,"W"],["W",null,"W","W",null,"W",null,"W","W","W"],[],[]],"timingvisible":false,"tabcounter":0,"totalstaves":5,"instrument":"6guitar","selectedtuning":"6_standard","version":"13"}

Member for

1 month 1 week
Submitted by 36Nexus on Fri, 2020-10-30 19:10