(Br)ass handle

Chords

01234567891011121314151617181920212223
E
B
G
D
A
E
B
0 1 2 3 4 5 6 7 8 9 10 11 12 13 14 15 16 17 18 19 20 21 22 23
(/) Slide Up  (\) Slide Down  (h) Hammer On  (p) Pull Off  (b) Bend (r) Release (v) Vibrato

Verse

E|----------------------------------------------------------------------------
B|----------------------------------------------------------------------------
G|-----7-----7-----7--8--8/10--8--7--8---------------8--10--10b12--10--8--10--
D|--8-----8-----8-----------------------8/10-----10---------------------------
A|----------------------------------------------------------------------------
E|----------------------------------------------------------------------------

Chorus

E|-----------------------------------------------------------------------------------------------
B|---------------------------------------------------------------------------------11------------
G|--------8------8------8--10--10b12--10--8--10--------8------8------8--10--10b12------12r10--8--
D|--8/10-----10-----10---------------------------8/10-----10-----10------------------------------
A|-----------------------------------------------------------------------------------------------
E|-----------------------------------------------------------------------------------------------



E|-------------------------------------------------------------------------
B|-------------------------------------------------------------------------
G|--------8------8------8--10--10b12r10--8--10-----8--10b12r10--8--10--10--
D|--8/10-----10-----10-----------------------------------------------------
A|-------------------------------------------------------------------------
E|-------------------------------------------------------------------------

Solo

E|-----------------------------------------------------------------------------------------------------------------
B|--11p8-----11p8-----11p8-----11p8-----11p8-----11p8-----11p8-----11p8-----11b13--11b13--11--8------8-------------
G|--------8--------8--------8--------8--------9--------9--------9--------9-----------------------10-----10------8--
D|----------------------------------------------------------------------------------------------------------10-----
A|-----------------------------------------------------------------------------------------------------------------
E|-----------------------------------------------------------------------------------------------------------------



E|--------------------------------------------------------------------------------------------------------------------------11------11------11------11--13--13b15--13--11-----
B|--------------------------------------------------------------------11------11------11------11--13--13b15--13--11--13---------13------13------13----------------------------
G|------8--10--10b12--10--8------8-----7--8/10--8-----7-----8-----12------12------12------12----------------------------------------------------------------------------------
D|--10-----------------------10-----------------------------------------------------------------------------------------------------------------------------------------------
A|----------------------------------------------------------------------------------------------------------------------------------------------------------------------------
E|----------------------------------------------------------------------------------------------------------------------------------------------------------------------------



E|--------------------------------------------------------------------------
B|--15----------15------15----------15------16--15--------------------------
G|------15----------15------15----------15----------17--15------------------
D|----------17------------------17--------------------------17--15--13--15--
A|--------------------------------------------------------------------------
E|--------------------------------------------------------------------------

							http://www.guitartabcreator.com
Instruments
{"strings":[[[".",".",".",".",".",".",".",".",".",".",".",".",".",".",".",".","_",".",".",".",".",".",".",".",".","."],[".",".",".",".",".",".",".",".",".",".",".",".",".",".",".",".","_",".",".",".",".",".",".",".",".","."],[".",7,".",7,".",7,8,8,"/",10,8,7,8,".",".",".","_",".",8,10,10,"b",12,10,8,10],[8,".",8,".",8,".",".",".",".",".",".",".",".",8,"/",10,"_",10,".",".",".",".",".",".",".","."],[".",".",".",".",".",".",".",".",".",".",".",".",".",".",".",".","_",".",".",".",".",".",".",".",".","."],[".",".",".",".",".",".",".",".",".",".",".",".",".",".",".",".","_",".",".",".",".",".",".",".",".","."]],[[".",".",".",".",".",".",".",".",".",".",".",".",".",".",".",".",".",".",".",".",".",".",".",".",".",".",".",".",".",".",".","."],[".",".",".",".",".",".",".",".",".",".",".",".",".",".",".",".",".",".",".",".",".",".",".",".",".",".",".",11,".",".",".","."],[".",".",".",8,".",8,".",8,10,10,"b",12,10,8,10,".",".",".",8,".",8,".",8,10,10,"b",12,".",12,"r",10,8],[8,"/",10,".",10,".",10,".",".",".",".",".",".",".",".",8,"/",10,".",10,".",10,".",".",".",".",".",".",".",".",".","."],[".",".",".",".",".",".",".",".",".",".",".",".",".",".",".",".",".",".",".",".",".",".",".",".",".",".",".",".",".",".",".","."],[".",".",".",".",".",".",".",".",".",".",".",".",".",".",".",".",".",".",".",".",".",".",".",".",".",".",".",".",".",".",".","."]],[[".",".",".",".",".",".",".",".",".",".",".",".",".",".",".",".","_",".",".",".",".",".",".",".",".","."],[".",".",".",".",".",".",".",".",".",".",".",".",".",".",".",".","_",".",".",".",".",".",".",".",".","."],[".",".",".",8,".",8,".",8,10,10,"b",12,"r",10,8,10,"_",8,10,"b",12,"r",10,8,10,10],[8,"/",10,".",10,".",10,".",".",".",".",".",".",".",".",".","_",".",".",".",".",".",".",".",".","."],[".",".",".",".",".",".",".",".",".",".",".",".",".",".",".",".","_",".",".",".",".",".",".",".",".","."],[".",".",".",".",".",".",".",".",".",".",".",".",".",".",".",".","_",".",".",".",".",".",".",".",".","."]],[[".",".",".",".",".",".",".",".",".",".",".",".",".",".",".",".",".",".",".",".",".",".",".",".",".",".",".",".",".",".",".",".",".",".",".",".",".",".",".",".",".",".",".",".","."],[11,"p",8,".",11,"p",8,".",11,"p",8,".",11,"p",8,".",11,"p",8,".",11,"p",8,".",11,"p",8,".",11,"p",8,".",11,"b",13,11,"b",13,11,8,".",8,".",".","."],[".",".",".",8,".",".",".",8,".",".",".",8,".",".",".",8,".",".",".",9,".",".",".",9,".",".",".",9,".",".",".",9,".",".",".",".",".",".",".",".",10,".",10,".",8],[".",".",".",".",".",".",".",".",".",".",".",".",".",".",".",".",".",".",".",".",".",".",".",".",".",".",".",".",".",".",".",".",".",".",".",".",".",".",".",".",".",".",".",10,"."],[".",".",".",".",".",".",".",".",".",".",".",".",".",".",".",".",".",".",".",".",".",".",".",".",".",".",".",".",".",".",".",".",".",".",".",".",".",".",".",".",".",".",".",".","."],[".",".",".",".",".",".",".",".",".",".",".",".",".",".",".",".",".",".",".",".",".",".",".",".",".",".",".",".",".",".",".",".",".",".",".",".",".",".",".",".",".",".",".",".","."]],[[".",".",".",".",".",".",".",".",".",".","_",".",".",".",".",".","_",".","_",".","_",".",".",".",".",".",".",".",".",".",".",".",".",".",".",".","_",11,".",11,".",11,".",11,13,13,"b",15,13,11,"_"],[".",".",".",".",".",".",".",".",".",".","_",".",".",".",".",".","_",".","_",".","_",".",11,".",11,".",11,".",11,13,13,"b",15,13,11,13,"_",".",13,".",13,".",13,".",".",".",".",".",".",".","_"],[".",8,10,10,"b",12,10,8,".",8,"_",7,8,"/",10,8,"_",7,"_",8,"_",12,".",12,".",12,".",12,".",".",".",".",".",".",".",".","_",".",".",".",".",".",".",".",".",".",".",".",".",".","_"],[10,".",".",".",".",".",".",".",10,".","_",".",".",".",".",".","_",".","_",".","_",".",".",".",".",".",".",".",".",".",".",".",".",".",".",".","_",".",".",".",".",".",".",".",".",".",".",".",".",".","_"],[".",".",".",".",".",".",".",".",".",".","_",".",".",".",".",".","_",".","_",".","_",".",".",".",".",".",".",".",".",".",".",".",".",".",".",".","_",".",".",".",".",".",".",".",".",".",".",".",".",".","_"],[".",".",".",".",".",".",".",".",".",".","_",".",".",".",".",".","_",".","_",".","_",".",".",".",".",".",".",".",".",".",".",".",".",".",".",".","_",".",".",".",".",".",".",".",".",".",".",".",".",".","_"]],[[".",".",".",".",".",".",".",".",".",".",".",".",".",".",".",".",".","."],[15,".",".",15,".",15,".",".",15,".",16,15,".",".",".",".",".","."],[".",15,".",".",15,".",15,".",".",15,".",".",17,15,".",".",".","."],[".",".",17,".",".",".",".",17,".",".",".",".",".",".",17,15,13,15],[".",".",".",".",".",".",".",".",".",".",".",".",".",".",".",".",".","."],[".",".",".",".",".",".",".",".",".",".",".",".",".",".",".",".",".","."]]],"numberofstrings":6,"notes":["E","B","G","D","A","E","B"],"capo":0,"stringnotes":["E4","B3","G3","D3","A2","E2"],"comments":["Verse","Chorus","","Solo","",""],"timing":[["W","W","W","W","W","W","W","W",null,"W","W","W","W","W",null,"W",null,"W","W","W","W","W","W","W","W","W","W","W","W"],["W",null,"W","W","W","W","W","W","W","W",null,"W","W","W","W","W",null,"W","W","W","W","W","W","W","W",null,"W","W","W",null,"W","W"],["W",null,"W","W","W","W","W","W","W","W",null,"W",null,"W","W","W",null,"W","W",null,"W",null,"W","W","W","W"],["W",null,"W","W","W",null,"W","W","W",null,"W","W","W",null,"W","W","W",null,"W","W","W",null,"W","W","W",null,"W","W","W",null,"W","W","W",null,"W","W",null,"W","W","W","W","W","W","W","W",null,"W","W","W","W"],["W","W","W","W",null,"W","W","W","W","W","W","W","W",null,"W","W",null,"W",null,"W",null,"W","W","W","W","W","W","W","W","W","W",null,"W","W","W","W",null,"W","W","W","W","W","W","W","W","W",null,"W","W","W"],["W","W","W","W","W","W","W","W","W","W","W","W","W","W","W","W","W","W"]],"timingvisible":false,"tabcounter":18,"stave":5,"totalstaves":6,"instrument":"6guitar","selectedtuning":"6_standard","version":"13"}

Member for

1 month 1 week
Submitted by 36Nexus on Sat, 2020-10-24 20:26