50 Cent Obituary

Chords

01234567891011121314151617181920212223
E
B
G
D
A
E
B
0 1 2 3 4 5 6 7 8 9 10 11 12 13 14 15 16 17 18 19 20 21 22 23
(/) Slide Up  (\) Slide Down  (h) Hammer On  (p) Pull Off  (b) Bend (r) Release (v) Vibrato

Intro

E|---------------------------------------------------------------------------------------------------------------------------------
B|---------------------------------------------------------------------------10----------------------------------------------------
G|---------------------9--11b13r11--9------9------9------11b13--11--9--8--9------9/11--------------------------9------9--11b13r11--
D|--------9------9h11------------------11-----11-----11--------------------------------11--9--9b11r9-----9/11-----11---------------
A|--9h11-----11--------------------------------------------------------------------------------------------------------------------
E|---------------------------------------------------------------------------------------------------------------------------------



E|----------------------------------
B|-----------10--10--12--10-14--12--
G|--9--8--9--11--11--11--11/13--13--
D|----------------------------------
A|----------------------------------
E|----------------------------------

Verse w/ ending 1

E|-----------------------------------------------------------------
B|--14--14--14--15p14-----12--12--14p12-----10--12--10--12-14--12--
G|--14--14--14--14-14-----13--13--13--------11--11--11--11-13--13--
D|--14--14--14--14-14-----14--14--14--------12--12--12--12/14--14--
A|-----------------------------------------------------------------
E|-----------------------------------------------------------------

Ending 2

E|-----------------
B|--9--10p9--------
G|--9--------11p9--
D|--9--------------
A|-----------------
E|-----------------

Chorus

E|-------------------------------------------------------------------------------------------------------------
B|--7--7--------10--10--------14-----14-----12-----------------------------------------------------------------
G|--7--7--------9---9---------16b18--16b18--14b16r14-------------------14--------------------------------------
D|--7--7--------9---9---------------------------------14/16-----14/16------16---------14-----------------------
A|-----------------------------------------------------------------------------14/16------16-----14------------
E|---------------------------------------------------------------------------------------------------17--17\0--

post-chorus?

E|-----------------------------------------------------------------------------
B|-----------------------------------------------------------------------------
G|-----------------------------------------------------------------------------
D|---------14------16b18r16--14------14-------------13--14--14--11--11--13--9--
A|--14h16------16----------------16------16--14/16------16--16--12--12--12--9--
E|-----------------------------------------------------------------------------

Solo

E|-------------------------------------------------------------------------------------------------------------------------------------12---------14--14--12--
B|-----------------------------------------10-------------------------------------------------12--14--14-----14--12--11--12--14------------15-----------------
G|--------9------9--11b13--11--9--8--9--8------11-----------------------------------9--11/14------------------------------------------------------------------
D|--9/11-----11------------------------------------11--9--9b11r9--7--7-----7--9/11----------------------------------------------------------------------------
A|------------------------------------------------------------------------------------------------------------------------------------------------------------
E|------------------------------------------------------------------------------------------------------------------------------------------------------------



E|------12--10--12--14--14/16--12---------------------------------------------------------
B|--15--14--12--14--15-------------14--12-----------------------------------14--------14--
G|-----------------------------------------14-----11/13/14-----11/13/14-----16b18--18r16--
D|----------------------------------------------------------------------------------------
A|----------------------------------------------------------------------------------------
E|----------------------------------------------------------------------------------------

Just mess around the a pentatonic scale and make a lot of noise

E|--14--------17--
B|--14--------17--
G|--14--------16--
D|--14--------16--
A|--14--------16--
E|--14--------17--

CHORDS (A-F#m-Bm7-E)

E|--5--------2--------2--------0--
B|--5--------2--------3--------0--
G|--6--------2--------2--------1--
D|--7--------4--------4--------2--
A|--7--------4--------2--------2--
E|--5--------2-----------------0--

Chorus CHORDS (D7-Dm7-A-F#m-Bm7-E)

E|--------------------------------------------------------
B|--7--------6-----------------5--------------3--------0--
G|--6--------5--------6--------6--------------2--------1--
D|--7--------7--------7--------7--------------4--------2--
A|--5--------5--------7--------7--------------2--------2--
E|--------------------5-----4--------------------------0--

BASS Intro

E|-------------------------------------
B|-------------------------------------
G|-------------------------------------
D|--7--7/9/11\9\7--9-------7--9--7-----
A|--------------------7h9-----------7--
E|-------------------------------------

BASS Verse (general notes and licks in between) feel free to be creative with the rhythm

E|--------------------------------------------
B|--------------------------------------------
G|--------------------------------------------
D|--------------------------------------------
A|--------------------------2--------4--2-----
E|--5--------2-----------5-----------------0--

BASS Chorus

E|-----------------------------------------------------------------------
B|-----------------------------------------------------------------------
G|-----------------------------------------------------------------------
D|-----------------------------------------------------------------------
A|--5--5--------4--4--4-----------------------------------2--------------
E|--------------------------------5--5--4--4--2-----------------------0--

							http://www.guitartabcreator.com
Tab Notes
The second part of the solo uses alot of octave bends
genre
Instruments
{"strings":[[[".",".",".",".",".",".",".",".",".",".",".",".",".",".",".",".",".",".",".",".",".",".",".",".",".",".",".",".",".",".",".",".",".",".",".",".",".",".","_",".",".",".",".",".",".",".",".",".",".","."],[".",".",".",".",".",".",".",".",".",".",".",".",".",".",".",".",".",".",".",".",".",".",".",".",".",".",".",10,".",".",".",".",".",".",".",".",".",".","_",".",".",".",".",".",".",".",".",".",".","."],[".",".",".",".",".",".",".",".",9,11,"b",13,"r",11,9,".",9,".",9,".",11,"b",13,11,9,8,9,".",9,"/",11,".",".",".",".",".",".",".","_",".",".",".",9,".",9,11,"b",13,"r",11],[".",".",".",9,".",9,"h",11,".",".",".",".",".",".",".",11,".",11,".",11,".",".",".",".",".",".",".",".",".",".",".",11,9,9,"b",11,"r",9,"_",9,"/",11,".",11,".",".",".",".",".","."],[9,"h",11,".",11,".",".",".",".",".",".",".",".",".",".",".",".",".",".",".",".",".",".",".",".",".",".",".",".",".",".",".",".",".",".",".",".",".","_",".",".",".",".",".",".",".",".",".",".","."],[".",".",".",".",".",".",".",".",".",".",".",".",".",".",".",".",".",".",".",".",".",".",".",".",".",".",".",".",".",".",".",".",".",".",".",".",".",".","_",".",".",".",".",".",".",".",".",".",".","."]],[[".",".",".",".",".",".",".",".",".","."],[".",".",".",10,10,12,10,".",14,12],[9,8,9,11,11,11,11,"/",13,13],[".",".",".",".",".",".",".",".",".","."],[".",".",".",".",".",".",".",".",".","."],[".",".",".",".",".",".",".",".",".","."]],[[".",".",".",".",".",".","_",".",".",".",".",".","_",".",".",".",".",".",".","."],[14,14,14,15,"p",14,"_",12,12,14,"p",12,"_",10,12,10,12,".",14,12],[14,14,14,14,".",14,"_",13,13,13,".",".","_",11,11,11,11,".",13,13],[14,14,14,14,".",14,"_",14,14,14,".",".","_",12,12,12,12,"/",14,14],[".",".",".",".",".",".","_",".",".",".",".",".","_",".",".",".",".",".",".","."],[".",".",".",".",".",".","_",".",".",".",".",".","_",".",".",".",".",".",".","."]],[[".",".",".",".",".",".","."],[9,10,"p",9,".",".","."],[9,".",".",".",11,"p",9],[9,".",".",".",".",".","."],[".",".",".",".",".",".","."],[".",".",".",".",".",".","."]],[[".",".","_","_",".",".","_","_",".",".",".",".",".",".",".",".",".",".",".",".",".",".","_",".",".",".",".",".",".",".",".",".",".","_",".",".",".",".","."],[7,7,"_","_",10,10,"_","_",14,".",".",14,".",".",12,".",".",".",".",".",".",".","_",".",".",".",".",".",".",".",".",".",".","_",".",".",".",".","."],[7,7,"_","_",9,9,"_","_",16,"b",18,16,"b",18,14,"b",16,"r",14,".",".",".","_",".",".",".",14,".",".",".",".",".",".","_",".",".",".",".","."],[7,7,"_","_",9,9,"_","_",".",".",".",".",".",".",".",".",".",".",".",14,"/",16,"_",14,"/",16,".",16,".",".",".",14,".","_",".",".",".",".","."],[".",".","_","_",".",".","_","_",".",".",".",".",".",".",".",".",".",".",".",".",".",".","_",".",".",".",".",".",14,"/",16,".",16,"_",14,".",".",".","."],[".",".","_","_",".",".","_","_",".",".",".",".",".",".",".",".",".",".",".",".",".",".","_",".",".",".",".",".",".",".",".",".",".","_",".",17,17,"\\",0]],[[".",".",".",".",".",".",".",".",".",".",".",".",".",".",".",".",".",".",".",".",".",".",".","."],[".",".",".",".",".",".",".",".",".",".",".",".",".",".",".",".",".",".",".",".",".",".",".","."],[".",".",".",".",".",".",".",".",".",".",".",".",".",".",".",".",".",".",".",".",".",".",".","."],[".",".",".",14,".",16,"b",18,"r",16,14,".",14,".",".",".",".",13,14,14,11,11,13,9],[14,"h",16,".",16,".",".",".",".",".",".",16,".",16,14,"/",16,".",16,16,12,12,12,9],[".",".",".",".",".",".",".",".",".",".",".",".",".",".",".",".",".",".",".",".",".",".",".","."]],[[".",".",".",".",".",".",".",".",".",".",".",".",".",".",".",".",".",".",".",".",".",".",".",".",".","_",".",".",".",".",".",".",".",".",".",".",".","_",".",".",".",".",".","_","_",12,".","_",14,14,12],[".",".",".",".",".",".",".",".",".",".",".",".",".",".",10,".",".",".",".",".",".",".",".",".",".","_",".",".",".",".",".",".",".",".",12,14,14,"_",14,12,11,12,14,"_","_",".",15,"_",".",".","."],[".",".",".",9,".",9,11,"b",13,11,9,8,9,8,".",11,".",".",".",".",".",".",".",".",".","_",".",".",".",".",9,11,"/",14,".",".",".","_",".",".",".",".",".","_","_",".",".","_",".",".","."],[9,"/",11,".",11,".",".",".",".",".",".",".",".",".",".",".",11,9,9,"b",11,"r",9,7,7,"_",7,9,"/",11,".",".",".",".",".",".",".","_",".",".",".",".",".","_","_",".",".","_",".",".","."],[".",".",".",".",".",".",".",".",".",".",".",".",".",".",".",".",".",".",".",".",".",".",".",".",".","_",".",".",".",".",".",".",".",".",".",".",".","_",".",".",".",".",".","_","_",".",".","_",".",".","."],[".",".",".",".",".",".",".",".",".",".",".",".",".",".",".",".",".",".",".",".",".",".",".",".",".","_",".",".",".",".",".",".",".",".",".",".",".","_",".",".",".",".",".","_","_",".",".","_",".",".","."]],[[".",12,10,12,14,14,"/",16,12,".",".",".","_",".",".",".",".",".","_",".",".",".",".",".","_",".",".",".",".",".","."],[15,14,12,14,15,".",".",".",".",14,12,".","_",".",".",".",".",".","_",".",".",".",".",".","_",14,".",".",".",".",14],[".",".",".",".",".",".",".",".",".",".",".",14,"_",11,"/",13,"/",14,"_",11,"/",13,"/",14,"_",16,"b",18,18,"r",16],[".",".",".",".",".",".",".",".",".",".",".",".","_",".",".",".",".",".","_",".",".",".",".",".","_",".",".",".",".",".","."],[".",".",".",".",".",".",".",".",".",".",".",".","_",".",".",".",".",".","_",".",".",".",".",".","_",".",".",".",".",".","."],[".",".",".",".",".",".",".",".",".",".",".",".","_",".",".",".",".",".","_",".",".",".",".",".","_",".",".",".",".",".","."]],[[14,"_","_",17],[14,"_","_",17],[14,"_","_",16],[14,"_","_",16],[14,"_","_",16],[14,"_","_",17]],[[5,"_","_",2,"_","_",2,"_","_",0],[5,"_","_",2,"_","_",3,"_","_",0],[6,"_","_",2,"_","_",2,"_","_",1],[7,"_","_",4,"_","_",4,"_","_",2],[7,"_","_",4,"_","_",2,"_","_",2],[5,"_","_",2,"_","_",".","_","_",0]],[[".","_","_",".","_","_",".","_",".",".","_","_","_","_",".","_","_","."],[7,"_","_",6,"_","_",".","_",".",5,"_","_","_","_",3,"_","_",0],[6,"_","_",5,"_","_",6,"_",".",6,"_","_","_","_",2,"_","_",1],[7,"_","_",7,"_","_",7,"_",".",7,"_","_","_","_",4,"_","_",2],[5,"_","_",5,"_","_",7,"_",".",7,"_","_","_","_",2,"_","_",2],[".","_","_",".","_","_",5,"_",4,".","_","_","_","_",".","_","_",0]],[[".",".",".",".",".",".",".",".",".",".",".",".",".",".",".",".",".","."],[".",".",".",".",".",".",".",".",".",".",".",".",".",".",".",".",".","."],[".",".",".",".",".",".",".",".",".",".",".",".",".",".",".",".",".","."],[7,7,"/",9,"/",11,"\\",9,"\\",7,9,".",".",".",7,9,7,"."],[".",".",".",".",".",".",".",".",".",".",".",7,"h",9,".",".",".",7],[".",".",".",".",".",".",".",".",".",".",".",".",".",".",".",".",".","."]],[[".","_","_",".","_","_","_",".",".","_","_",".",".","."],[".","_","_",".","_","_","_",".",".","_","_",".",".","."],[".","_","_",".","_","_","_",".",".","_","_",".",".","."],[".","_","_",".","_","_","_",".",".","_","_",".",".","."],[".","_","_",".","_","_","_",".",2,"_","_",4,2,"."],[5,"_","_",2,"_","_","_",5,".","_","_",".",".",0]],[[".",".","_","_",".",".",".","_","_","_",".",".",".",".",".","_","_","_",".","_","_","_","."],[".",".","_","_",".",".",".","_","_","_",".",".",".",".",".","_","_","_",".","_","_","_","."],[".",".","_","_",".",".",".","_","_","_",".",".",".",".",".","_","_","_",".","_","_","_","."],[".",".","_","_",".",".",".","_","_","_",".",".",".",".",".","_","_","_",".","_","_","_","."],[5,5,"_","_",4,4,4,"_","_","_",".",".",".",".",".","_","_","_",2,"_","_","_","."],[".",".","_","_",".",".",".","_","_","_",5,5,4,4,2,"_","_","_",".","_","_","_",0]]],"numberofstrings":6,"notes":["E","B","G","D","A","E","B"],"capo":0,"stringnotes":["E4","B3","G3","D3","A2","E2"],"comments":["Intro","","Verse w/ ending 1","Ending 2","Chorus","post-chorus?","Solo","","Just mess around the a pentatonic scale and make a lot of noise","CHORDS (A-F#m-Bm7-E)","Chorus CHORDS (D7-Dm7-A-F#m-Bm7-E)","BASS Intro","BASS Verse (general notes and licks in between) feel free to be creative with the rhythm","BASS Chorus"],"timing":[[null,null,null,null,null,null,null,null,null,null,null,null,null,null,null,null,null,null,null,null,null,null,null,null,null,null,null,null,null,null,null,null,null,null,null,null,null,null,null,null,null,null,null,null,null,null,null,null,null,null,null],[null,null,null,null,null,null,null,null,null,null],["W","W","W","W",null,"W",null,"W","W","W",null,"W",null,"W","W","W","W",null,"W","W"],["W","W",null,"W","W",null,"W"],["W","W",null,"W","W","W",null,null,"W","W","W","W",null,"W","W",null,"W",null,"W","W",null,"W",null,"W",null,"W","W","W","W",null,"W","W","W",null,"W","W","W",null,"W","W"],["W",null,"W","W","W","W",null,"W",null,"W","W","W","W","W","W",null,"W","W","W","W","W","W","W","W"],["W",null,"W","W","W","W","W",null,"W","W","W","W","W","W","W","W","W","W","W","W","W","W","W","W","W","W","W","W","W","W","W","W",null,"W","W","W","W",null,"W","W","W","W","W",null,null,"W","W",null,"W","W","W"],["W","W","W","W","W","W",null,"W","W","W","W","W",null,"W",null,"W",null,"W",null,"W",null,"W",null,"W",null,"W","W","W","W",null,"W"],["W",null,null,"W"],["W",null,"W","W",null,null,"W",null,null,"W"],["W",null,null,"W",null,null,"W",null,"W","W",null,null,"W",null,"W",null,null,"W"],["W","W",null,"W",null,"W",null,"W","W","W","W","W",null,"W","W","W","W","W"],["W",null,null,"W","W",null,"W","W","W","W",null,"W","W","W"],["W","W",null,null,"W","W","W",null,null,null,"W","W","W","W","W",null,null,null,"W",null,null,null,"W"]],"timingvisible":false,"tabcounter":23,"stave":13,"totalstaves":14,"instrument":"6guitar","selectedtuning":"6_standard","version":"13"}

Member for

1 month 1 week
Submitted by 36Nexus on Sat, 2020-10-24 17:24