Knuckle Puck - Stuck In Our Ways

01234567891011121314151617181920212223
E
B
G
D
A
E
B
0 1 2 3 4 5 6 7 8 9 10 11 12 13 14 15 16 17 18 19 20 21 22 23
(/) Slide Up  (\) Slide Down  (h) Hammer On  (p) Pull Off  (b) Bend (r) Release (v) Vibrato

Stave 1:

Eb|--------------------------------------
Bb|--------------------------------------
Gb|--12--12--12--12--12--12--12--12--12--
Db|--12--12--12--12--12--12--12--12--12--
Ab|--------------------------------------
Eb|--------------------------------------

Stave 2:

Eb|-----------------10---------------------------------------------------------10-----------------------10h12-------------------------------
Bb|------10h12----------12--12b13------10h12------12b13r12--10------10h12----------12--12b13r12--10h12---------15--15--15--15--15--15-------
Gb|--12---------12-----------------12---------12----------------12---------12----------------------------------12--12--12--12--12--12--12v--
Db|-----------------------------------------------------------------------------------------------------------------------------------------
Ab|-----------------------------------------------------------------------------------------------------------------------------------------
Eb|-----------------------------------------------------------------------------------------------------------------------------------------

Stave 3:

Eb|--------------
Bb|--------------
Gb|-----------7--
Db|--------------
Ab|--------------
Eb|--------------

Stave 4:

Eb|---------------------------------------------------------------------------------------------------------------
Bb|------------------------------5---------------------------------------------5--------15--12--12b13r12p10-------
Gb|---------12------14------12v-----5---------------------12------14------12v-----5--------------------------12v--
Db|--12h14------14------14-------------------------12h14------14------14------------------------------------------
Ab|---------------------------------------------------------------------------------------------------------------
Eb|---------------------------------------------------------------------------------------------------------------

Stave 5:

Eb|---------10-----------------------------------------------------------------------------10h12---------------------------------
Bb|--10h12------12--12b13r12------10h12v--12/13\12-------10h12--10h13\12--12b13r12--10h12---------15-----15--15--15--15--15--15--
Gb|---------------------------12------------------------------------------------------------------12-----12--12--12--12--12--12--
Db|-------------------------------------------------12v--------------------------------------------------------------------------
Ab|------------------------------------------------------------------------------------------------------------------------------
Eb|------------------------------------------------------------------------------------------------------------------------------

Stave 6:

Eb|--------------10-----------------------------------------------------------------------------10h12---------------------------------
Bb|-------10h12------12--12b13r12------10h12v--12/13\12-------10h12--10h13\12--12b13r12--10h12---------15-----15--15--15--15--15--15--
Gb|--12v---------------------------12--------------------12v-------------------------------------------12-----12--12--12--12--12--12--
Db|-----------------------------------------------------------------------------------------------------------------------------------
Ab|-----------------------------------------------------------------------------------------------------------------------------------
Eb|-----------------------------------------------------------------------------------------------------------------------------------

Stave 7:

Eb|------------------------------------
Bb|------------------------------5-----
Gb|---------12------14------12v-----5--
Db|--12h14------14------14-------------
Ab|------------------------------------
Eb|------------------------------------

Stave 8:

Eb|----------------------------
Bb|--15--12--12b13r12p10-------
Gb|-----------------------12v--
Db|----------------------------
Ab|----------------------------
Eb|----------------------------

Stave 9:

Eb|--------------------------------------------
Bb|--9--9--9--9--9--9--9--9-----------------3--
Gb|--0--0--0--0--0--0--0--0-----------------0--
Db|-----------------------------------------x--
Ab|-----------------------------------------x--
Eb|-----------------------------------------3--

Stave 10:

Eb|-----------------------------------------------------------------------------------------------------
Bb|---------------------------------------------------------------------15--15--15--15--15--15--15--15--
Gb|---------------------------------------------------------------------12--12--12--12--12--12--12--12--
Db|------------------------------------------5----------------------------------------------------------
Ab|------------------------------------------5----------------------------------------------------------
Eb|--3v--/8v--\3-----------------------23\4--3----------------------------------------------------------

							http://www.guitartabcreator.com
Chords

Instruments
{"strings":[[[".",".",".",".",".",".",".",".","."],[".",".",".",".",".",".",".",".","."],[12,12,12,12,12,12,12,12,12],[12,12,12,12,12,12,12,12,12],[".",".",".",".",".",".",".",".","."],[".",".",".",".",".",".",".",".","."]],[[".",".",".",".",".",10,".",".",".",".",".",".",".",".",".",".",".",".",".",".",".",".",".",".",".",".",10,".",".",".",".",".",".",".",".",".",10,"h",12,".",".",".",".",".",".",".","."],[".",10,"h",12,".",".",12,12,"b",13,".",10,"h",12,".",12,"b",13,"r",12,10,".",10,"h",12,".",".",12,12,"b",13,"r",12,10,"h",12,".",".",".",15,15,15,15,15,15,".","."],[12,".",".",".",12,".",".",".",".",".",12,".",".",".",12,".",".",".",".",".",".",12,".",".",".",12,".",".",".",".",".",".",".",".",".",".",".",".",".",12,12,12,12,12,12,12,"v"],[".",".",".",".",".",".",".",".",".",".",".",".",".",".",".",".",".",".",".",".",".",".",".",".",".",".",".",".",".",".",".",".",".",".",".",".",".",".",".",".",".",".",".",".",".",".","."],[".",".",".",".",".",".",".",".",".",".",".",".",".",".",".",".",".",".",".",".",".",".",".",".",".",".",".",".",".",".",".",".",".",".",".",".",".",".",".",".",".",".",".",".",".",".","."],[".",".",".",".",".",".",".",".",".",".",".",".",".",".",".",".",".",".",".",".",".",".",".",".",".",".",".",".",".",".",".",".",".",".",".",".",".",".",".",".",".",".",".",".",".",".","."]],[["_","_","_","."],["_","_","_","."],["_","_","_",7],["_","_","_","."],["_","_","_","."],["_","_","_","."]],[[".",".",".",".",".",".",".",".",".",".",".","_","_","_","_",".",".",".",".",".",".",".",".",".",".",".","_",".",".",".",".",".",".",".",".",".",".","."],[".",".",".",".",".",".",".",".",".",5,".","_","_","_","_",".",".",".",".",".",".",".",".",".",5,".","_",15,12,12,"b",13,"r",12,"p",10,".","."],[".",".",".",12,".",14,".",12,"v",".",5,"_","_","_","_",".",".",".",12,".",14,".",12,"v",".",5,"_",".",".",".",".",".",".",".",".",".",12,"v"],[12,"h",14,".",14,".",14,".",".",".",".","_","_","_","_",12,"h",14,".",14,".",14,".",".",".",".","_",".",".",".",".",".",".",".",".",".",".","."],[".",".",".",".",".",".",".",".",".",".",".","_","_","_","_",".",".",".",".",".",".",".",".",".",".",".","_",".",".",".",".",".",".",".",".",".",".","."],[".",".",".",".",".",".",".",".",".",".",".","_","_","_","_",".",".",".",".",".",".",".",".",".",".",".","_",".",".",".",".",".",".",".",".",".",".","."]],[[".",".",".",10,".",".",".",".",".",".",".",".",".",".",".",".",".",".",".",".",".",".",".",".",".",".",".",".",".",".",".",".",".",".",".",".",".",".",10,"h",12,".","_",".",".",".",".",".","."],[10,"h",12,".",12,12,"b",13,"r",12,".",10,"h",12,"v",12,"/",13,"\\",12,".",".",10,"h",12,10,"h",13,"\\",12,12,"b",13,"r",12,10,"h",12,".",".",".",15,"_",15,15,15,15,15,15],[".",".",".",".",".",".",".",".",".",".",12,".",".",".",".",".",".",".",".",".",".",".",".",".",".",".",".",".",".",".",".",".",".",".",".",".",".",".",".",".",".",12,"_",12,12,12,12,12,12],[".",".",".",".",".",".",".",".",".",".",".",".",".",".",".",".",".",".",".",".",12,"v",".",".",".",".",".",".",".",".",".",".",".",".",".",".",".",".",".",".",".",".","_",".",".",".",".",".","."],[".",".",".",".",".",".",".",".",".",".",".",".",".",".",".",".",".",".",".",".",".",".",".",".",".",".",".",".",".",".",".",".",".",".",".",".",".",".",".",".",".",".","_",".",".",".",".",".","."],[".",".",".",".",".",".",".",".",".",".",".",".",".",".",".",".",".",".",".",".",".",".",".",".",".",".",".",".",".",".",".",".",".",".",".",".",".",".",".",".",".",".","_",".",".",".",".",".","."]],[[".",".",".",".",".",10,".",".",".",".",".",".",".",".",".",".",".",".",".",".",".",".",".",".",".",".",".",".",".",".",".",".",".",".",".",".",".",".",".",".",10,"h",12,".","_",".",".",".",".",".","."],[".",".",10,"h",12,".",12,12,"b",13,"r",12,".",10,"h",12,"v",12,"/",13,"\\",12,".",".",10,"h",12,10,"h",13,"\\",12,12,"b",13,"r",12,10,"h",12,".",".",".",15,"_",15,15,15,15,15,15],[12,"v",".",".",".",".",".",".",".",".",".",".",12,".",".",".",".",".",".",".",".",".",12,"v",".",".",".",".",".",".",".",".",".",".",".",".",".",".",".",".",".",".",".",12,"_",12,12,12,12,12,12],[".",".",".",".",".",".",".",".",".",".",".",".",".",".",".",".",".",".",".",".",".",".",".",".",".",".",".",".",".",".",".",".",".",".",".",".",".",".",".",".",".",".",".",".","_",".",".",".",".",".","."],[".",".",".",".",".",".",".",".",".",".",".",".",".",".",".",".",".",".",".",".",".",".",".",".",".",".",".",".",".",".",".",".",".",".",".",".",".",".",".",".",".",".",".",".","_",".",".",".",".",".","."],[".",".",".",".",".",".",".",".",".",".",".",".",".",".",".",".",".",".",".",".",".",".",".",".",".",".",".",".",".",".",".",".",".",".",".",".",".",".",".",".",".",".",".",".","_",".",".",".",".",".","."]],[[".",".",".",".",".",".",".",".",".",".","."],[".",".",".",".",".",".",".",".",".",5,"."],[".",".",".",12,".",14,".",12,"v",".",5],[12,"h",14,".",14,".",14,".",".",".","."],[".",".",".",".",".",".",".",".",".",".","."],[".",".",".",".",".",".",".",".",".",".","."]],[[".",".",".",".",".",".",".",".",".",".","."],[15,12,12,"b",13,"r",12,"p",10,".","."],[".",".",".",".",".",".",".",".",".",12,"v"],[".",".",".",".",".",".",".",".",".",".","."],[".",".",".",".",".",".",".",".",".",".","."],[".",".",".",".",".",".",".",".",".",".","."]],[[".",".",".",".",".",".",".",".","_","_","_","_","_","."],[9,9,9,9,9,9,9,9,"_","_","_","_","_",3],[0,0,0,0,0,0,0,0,"_","_","_","_","_",0],[".",".",".",".",".",".",".",".","_","_","_","_","_","x3"],[".",".",".",".",".",".",".",".","_","_","_","_","_","x0"],[".",".",".",".",".",".",".",".","_","_","_","_","_",3]],[[".",".",".",".",".",".",".","_","_","_","_","_","_","_",".",".",".",".","_","_","_","_","_","_","_","_",".",".",".",".",".",".",".","."],[".",".",".",".",".",".",".","_","_","_","_","_","_","_",".",".",".",".","_","_","_","_","_","_","_","_",15,15,15,15,15,15,15,15],[".",".",".",".",".",".",".","_","_","_","_","_","_","_",".",".",".",".","_","_","_","_","_","_","_","_",12,12,12,12,12,12,12,12],[".",".",".",".",".",".",".","_","_","_","_","_","_","_",".",".",".",5,"_","_","_","_","_","_","_","_",".",".",".",".",".",".",".","."],[".",".",".",".",".",".",".","_","_","_","_","_","_","_",".",".",".",5,"_","_","_","_","_","_","_","_",".",".",".",".",".",".",".","."],[3,"v","/",8,"v","\\",3,"_","_","_","_","_","_","_",23,"\\",4,3,"_","_","_","_","_","_","_","_",".",".",".",".",".",".",".","."]]],"numberofstrings":6,"notes":["DsEb","AsBb","FsGb","CsDb","GsAb","DsEb"],"capo":0,"stringnotes":["Eb3","Bb2","Gb2","Db2","Ab1","Eb1"],"comments":["Stave 1:","Stave 2:","Stave 3:","Stave 4:","Stave 5:","Stave 6:","Stave 7:","Stave 8:","Stave 9:","Stave 10:"],"timing":[["W","W","W","W","W","W","W","W","W"],["W","W",null,"W","W","W","W","W",null,"W","W","W",null,"W","W","W",null,"W",null,"W","W","W","W",null,"W","W","W","W","W",null,"W",null,"W","W",null,"W","W",null,"W","W","W","W","W","W","W","W"],[null,null,null,"W"],["W",null,"W","W","W","W","W","W",null,"W","W",null,null,null,null,"W",null,"W","W","W","W","W","W",null,"W","W",null,"W","W","W",null,"W",null,"W",null,"W","W"],["W",null,"W","W","W","W",null,"W",null,"W","W","W",null,"W",null,"W",null,"W",null,"W","W",null,"W",null,"W","W",null,"W",null,"W","W",null,"W",null,"W","W",null,"W","W",null,"W","W","W","W","W","W","W","W","W"],["W",null,"W",null,"W","W","W","W",null,"W",null,"W","W","W",null,"W",null,"W",null,"W",null,"W","W",null,"W",null,"W","W",null,"W",null,"W","W",null,"W",null,"W","W",null,"W","W",null,"W","W",null,"W","W","W","W","W","W"],["W",null,"W","W","W","W","W","W",null,"W","W"],["W","W","W",null,"W",null,"W",null,"W","W"],["W","W","W","W","W","W","W","W",null,null,null,null,null,"W"],["W",null,null,"W",null,null,"W",null,null,null,null,null,null,null,"W",null,"W","W",null,null,null,null,null,null,null,null,"W","W","W","W","W","W","W","W"]],"timingvisible":false,"tabcounter":33,"stave":9,"totalstaves":10,"instrument":"6guitar","selectedtuning":"Half Step Down","version":"13"}

Member for

4 months 2 weeks
Submitted by 31AFTRMTH on Sat, 2020-09-05 20:35