Sound will begin in 5 seconds

Soulshine Intro Lick

01234567891011121314151617181920212223
E
B
G
D
A
E
B
0 1 2 3 4 5 6 7 8 9 10 11 12 13 14 15 16 17 18 19 20 21 22 23
Song Science #1: How Pros Use 6 Chords to Write Hit Songs
(/) Slide Up  (\) Slide Down  (h) Hammer On  (p) Pull Off  (b) Bend (r) Release (v) Vibrato

Stave 1:

E|---------------------------------------------------------------------------
B|-------------------------------6-------------------------------------------
G|-------3--3-----5b6--5b7--5b7-----5b7--5--5v-----3--3h5b7r5--5----------3--
D|--3/5--------5--------------------------------5-----------------5----------
A|-------------------------------------------------------------------4h5-----
E|---------------------------------------------------------------------------

Stave 2:

E|-----------------------------------------13-------------------------------13b16r13--11----------
B|---------11--11------13b14r13b15--13b15------13--13v------11------11--11----------------14--11--
G|--11/12----------12-----------------------------------12------12--------------------------------
D|------------------------------------------------------------------------------------------------
A|------------------------------------------------------------------------------------------------
E|------------------------------------------------------------------------------------------------

http://www.guitartabcreator.com
Guitar Tab Creator is intended to store guitar tab created through the tool. It currently does not support in-line text editing. Any text you place in here will be lost. If you need to comment on your tab, please use the "Tab Notes" section located below.