Sound will begin in 5 seconds

Shine On You Cra

01234567891011121314151617181920212223
E
B
G
D
A
E
B
0 1 2 3 4 5 6 7 8 9 10 11 12 13 14 15 16 17 18 19 20 21 22 23
Song Science #1: How Pros Use 6 Chords to Write Hit Songs
(/) Slide Up  (\) Slide Down  (h) Hammer On  (p) Pull Off  (b) Bend (r) Release (v) Vibrato

Stave 1:

E|-------------------------------------------------------------------
B|--18b20--18b20------11--13b15--13--13b15--15r13--11--13b15--13b15--
G|----------------12-------------------------------------------------
D|-------------------------------------------------------------------
A|-------------------------------------------------------------------
E|-------------------------------------------------------------------

Stave 2:

E|--|-------------------------------------|-------------------------------------------------------
B|--|--10--11p10------10--10--------------|-------------------------------------------------------
G|--|-------------12----------10------10--|--12b15r12b15r12--10--12--12b14--12b14r12--10--12--12--
D|--|-----------------------------12------|-------------------------------------------------------
A|--|-------------------------------------|-------------------------------------------------------
E|--|-------------------------------------|-------------------------------------------------------

Stave 3:

E|-------------------------------15--18--18b20r18-------------
B|------18b20------18b20--18b20--------------------15r13------
G|--15---------17-----------------------------------------12--
D|------------------------------------------------------------
A|------------------------------------------------------------
E|------------------------------------------------------------

Stave 4:

E|------------------------------------------------------
B|--15r13-----------------------------------------------
G|---------12------10--12--12b15--12b15--12b15--10--12--
D|-------------12---------------------------------------
A|------------------------------------------------------
E|------------------------------------------------------

Stave 5:

E|--------------------------------------------15-----------------------------------------------------
B|--15r13--11--13b15---------18--18b20r18b20------18b20--20r15----------------------------------11v--
G|--------------------17b19-------------------------------------17b19--19r17--15--17--17--9/12-------
D|---------------------------------------------------------------------------------------------------
A|---------------------------------------------------------------------------------------------------
E|---------------------------------------------------------------------------------------------------

Stave 6:

E|-------------------------------------15-----------------------------------------
B|--13b15r11--13b15---------18--18b20------18b20r15--------------------------11v--
G|-------------------17b19---------------------------17b19r15--17--17--9/12-------
D|--------------------------------------------------------------------------------
A|--------------------------------------------------------------------------------
E|--------------------------------------------------------------------------------

Stave 7:

E|---------------------------13----------------15--18------18--20b22--20r18--17---------
B|--15r13--11--13b15--13b15------13b15--18b20----------15------------------------18b20--
G|--------------------------------------------------------------------------------------
D|--------------------------------------------------------------------------------------
A|--------------------------------------------------------------------------------------
E|--------------------------------------------------------------------------------------

http://www.guitartabcreator.com
Guitar Tab Creator is intended to store guitar tab created through the tool. It currently does not support in-line text editing. Any text you place in here will be lost. If you need to comment on your tab, please use the "Tab Notes" section located below.