Sound will begin in 5 seconds

Pentatonic Licks

Chords
01234567891011121314151617181920212223
E
B
G
D
A
E
B
0 1 2 3 4 5 6 7 8 9 10 11 12 13 14 15 16 17 18 19 20 21 22 23
Song Science #1: How Pros Use 6 Chords to Write Hit Songs
(/) Slide Up  (\) Slide Down  (h) Hammer On  (p) Pull Off  (b) Bend (r) Release (v) Vibrato

Stave 1:

E|--3--0-----3--0-----------8--5-----8--5-----
B|--------3-----------------------8-----------
G|--------------------------------------------
D|--------------------------------------------
A|--------------------------------------------
E|--------------------------------------------

Stave 2:

E|--------------------------------------------------------------------
B|--------------------------------------------------------------------
G|--------------------------------------------------------------------
D|--0h2--0------------------------------5h7--5------------------------
A|----------2--0h1p0-----0----------------------7--5h6p5-----5--------
E|--------------------3-----3--0--------------------------8-----8--5--

Stave 3:

E|----------3---------------------8------------------------------------------
B|-------3-----3h5-------------8-----8h10v-----------------------------------
G|--2/4-------------------7/9----------------------------------------2-------
D|----------------------------------------------------------------2-----3/5--
A|------------------------------------------------5b6p3-----3--5-------------
E|-------------------------------------------------------5-------------------

Stave 4:

E|--7b9--7--6--5h6p5---------------------------------------------------------
B|--------------------8--8b11--5--5v-----------------------------------------
G|---------------------------------------------------------------------------
D|---------------------------------------------5--7h8p7p5--7--5--------------
A|------------------------------------------7--------------------7-----5--7--
E|------------------------------------------------------------------7--------

Stave 5:

E|--7-------------------------------------------------------------------
B|--8--8b9r8b9r8b9------------------------------------------------------
G|------------------9-----7v--9-----------------------------------------
D|---------------------9---------------7h9--7h8p7------7----------------
A|-------------------------------------------------10-----10--7------7--
E|---------------------------------------------------------------10-----

Stave 6:

E|--12------------------------------------------------------------------------------
B|--10--10h11--10h11p10------10-----------------------------------------------------
G|-----------------------12------12--9------9--------------------------9--12b13--9--
D|--------------------------------------12--------------------------9---------------
A|----------------------------------------------------------10--12------------------
E|---------------------------------------------------10/12--------------------------

Stave 7:

E|---------12--15b16--12v-------------------------------
B|--11/12------------------------12---------------------
G|-------------------------------12---------------------
D|-----------------------------------14p12------12--14--
A|------------------------------------------14----------
E|------------------------------------------------------

http://www.guitartabcreator.com
Guitar Tab Creator is intended to store guitar tab created through the tool. It currently does not support in-line text editing. Any text you place in here will be lost. If you need to comment on your tab, please use the "Tab Notes" section located below.