Sound will begin in 5 seconds

D.E.A.D (Man with no Face)

Chords
01234567891011121314151617181920212223
E
B
G
D
A
E
B
0 1 2 3 4 5 6 7 8 9 10 11 12 13 14 15 16 17 18 19 20 21 22 23
Song Science #1: How Pros Use 6 Chords to Write Hit Songs
(/) Slide Up  (\) Slide Down  (h) Hammer On  (p) Pull Off  (b) Bend (r) Release (v) Vibrato

Stave 1:

E|--------------------------------------------------------------------------
B|--------------------------------------------------------------------------
G|---14-14---14-14-----------14-14------------------------------------------
D|---13-13---13-13-----------13-13------------------------------------------
A|---12-12---12-12---3-------12-12--------------3-----------------3/5-------
E|-0-------0-------0---1-0-0-------0-0-1-0----0---1-0-0-3-3-0-2-3-----7-6-5-

Stave 2:

E|----------------------------------------------------------
B|----------------------------------------------------------
G|-----------14-14------------------------------------------
D|-----------13-13------------------------------------------
A|---3-------12-12--------------3-----------------3/5-------
E|-0---1-0-0-------0-0-1-0----0---1-0-0-3-3-0-2-3-----7-6-5-

Stave 3:

E|--------------------------------------------------------------------------------
B|--------------------------------------------------------------------------------
G|--------------------------------------------------------------------------------
D|------------------------------------------------------------------------0-3-5-6-
A|---------------------------------6-3-5----------------------------------0-3-5-6-
E|-0-0-0----0-0-0----0-0----0----0----------0-0-0----0-0-0----0-0----0----0-3-5-6-

Stave 4:

E|------------------------------------------------------------------------
B|------------------------------------------------------------------------
G|------------------------------------------------------------------------
D|------------------------------------------------------------------------
A|---------------------------------6-3-5------------------------0-0-0-0-0-
E|-0-0-0----0-0-0----0-0----0----0----------0-0-0----0-0-0----0-1-1-1-1-1-

Stave 5:

E|-------------------------------------------------------------------------------------
B|-------------------------------------------------------------------------------------
G|-------------------------------------------------------------------------------------
D|-0----0-0-0----0-0-0----0-0----0----0----------0-0-0----0-0-0----0-0----0----0-3-5-6-
A|-0----0-0-0----0-0-0----0-0----0----0-6-3-5----0-0-0----0-0-0----0-0----0----0-3-5-6-
E|-0----0-0-0----0-0-0----0-0----0----0----------0-0-0----0-0-0----0-0----0----0-3-5-6-

Stave 6:

E|----------------------------------------------------------------
B|----------------------------------------------------------------
G|----------------------------------------------------------------
D|-0-0-0----0-0-0----0-0----0----0----------0-0-0----0-0-0----0-1-
A|-0-0-0----0-0-0----0-0----0----0-6-3-5----0-0-0----0-0-0----0-1-
E|-0-0-0----0-0-0----0-0----0----0----------0-0-0----0-0-0----0-1-

Stave 7:

E|-----------------------------------------------------------------
B|-----------------------------------------------------------------
G|-----------------------------------------------------------------
D|-0-0-0-0-0-0-0-0-0-0-0-0-0-0-0-0-3-3-3-3-3-3-3-3-6-6-6-6-6-6-6-6-
A|-0-0-0-0-0-0-0-0-0-0-0-0-0-0-0-0-1-1-1-1-1-1-1-1-4-4-4-4-4-4-4-4-
E|-0-0-0-0-0-0-0-0-0-0-0-0-0-0-0-0---------------------------------

Stave 8:

E|-----------------------------------------------------------------
B|-----------------------------------------------------------------
G|-----------------------------------------------------------------
D|-7-7-7-7-7-7-7-7-7-7-7-7-7-7-7-7-3-3-3-3-3-3-3-3-6-6-6-6-6-6-6-6-
A|-5-5-5-5-5-5-5-5-5-5-5-5-5-5-5-5-3-3-3-3-3-3-3-3-6-6-6-6-6-6-6-6-
E|---------------------------------3-3-3-3-3-3-3-3-6-6-6-6-6-6-6-6-

Stave 9:

E|-----------------------------------------------------------------
B|-----------------------------------------------------------------
G|-----------------------------------------------------------------
D|-0-0-0-0-0-0-0-0-0-0-0-0-0-0-0-0-3-3-3-3-3-3-3-3-6-6-6-6-6-6-6-6-
A|-0-0-0-0-0-0-0-0-0-0-0-0-0-0-0-0-1-1-1-1-1-1-1-1-4-4-4-4-4-4-4-4-
E|-0-0-0-0-0-0-0-0-0-0-0-0-0-0-0-0---------------------------------

Stave 10:

E|-----------------------------------------------------------------
B|-----------------------------------------------------------------
G|---------------------------------------------------14-14---14-14-
D|-7-7-7-7-7-7-7-7-7-7-7-7-7-7-7-7-3-3-3-3-3-3-3-3---13-13---13-13-
A|-5-5-5-5-5-5-5-5-5-5-5-5-5-5-5-5-3-3-3-3-3-3-3-3---12-12---12-12-
E|---------------------------------3-3-3-3-3-3-3-3-0-------0-------

Stave 11:

E|-----------------------------------------------------------
B|-----------------------------------------------------------
G|-----------------------------------------------------------
D|-----------------------------------------------------------
A|-------------------------------------------------0-0-0-0-0-
E|-0-0-0-0-0-0-0-0-------0-0-0-0-0-0-0-0-0-0-0-0-0-1-1-1-1-1-

Stave 12:

E|-------------------------------------------------0---------
B|---------------------------------------------------4-------
G|-----------------------------------------------------5-----
D|-------------------------------------------------------6---
A|---------------------------------------------------------7-
E|-0-0-0-0-0-0-0-0-------0-0-0-0-0-0-0-0-0-0-0-0-0-----------

Stave 13:

E|--------------------------------------------------4-----------------0-0-0-
B|----------------------------------------------------4---------------5-5-5-
G|------------------------------------------------------4-------------8-8-8-
D|--------------------------------------------------------4-----------------
A|-0-------------------------0-0-0--------------------------4---0-0-0-------
E|-0-------0-0-0-0-0-0-0-0-0-1-1-1----0-0-0-0-0-0-0-----------4-0-0-0-------

Stave 14:

E|---------------------------------------------------------------------4-----------------0-0-0-
B|-----------------------------------------------------------------------4---------------5-5-5-
G|-------------------------------------------------------------------------4-------------8-8-8-
D|---------------------------------------------------------------------------4-----------------
A|-----------------------------------------------------------------------------4---0-0-0-------
E|-0-0-0----0-0-0----0-0-0----0-0-0----0-0-0----0-0-0----0-0-0-0-0-0-0-----------4-0-0-0-------

Stave 15:

E|-------------------------------------------------------------------------------
B|-------------------------------------------------------------------------------
G|-------------------------------------------------------------------------------
D|-7-7-7-7-7-7-7-7-7-7-7-7-7-7-7-10-10-10-10-10-10-10-10-10-10-10-10-10-10-10-10-
A|-5-5-5-5-5-5-5-5-5-5-5-5-5-5-5-8--8--8--8--8--8--8--8--8--8--8--8--8--8--8--8--
E|-------------------------------------------------------------------------------

Stave 16:

E|-------------------------------------------------------------------
B|-------------------------------------------------------------------
G|-------------------------------------------------------------------
D|-3-3-3-3-3-3-3-3-3-3-3-3-3-3-3-3-------------------5-5-5-7-7-10-10-
A|-1-1-1-1-1-1-1-1-1-1-1-1-1-1-1-1-------------------3-3-3-5-5-8--8--
E|---------------------------------3-3-3-5-5-5-7-7-7-----------------

Stave 17:

E|-----------------------------------------------------------------------
B|-----------------------------------------------------------------------
G|-----------------------------------------------------------------------
D|-10-12-12-10-10-12-12-10-------10-12-12-10-10--------------------------
A|-10-12-12-10-10-12-12-10-------10-12-12-10-10-------------12-----------
E|-10-12-12-10-10-12-12-10-12b---10-12-12-10-10-12v-0-12-13----13-12-13v-

Stave 18:

E|-----------------------------------------------------------------
B|-----------------------------------------------------------------
G|-----------------------------------------------------------------
D|-10-12-12-10-10-12-12-10-------10-12-12-10-10-12---13-13---13-13-
A|-10-12-12-10-10-12-12-10-------10-12-12-10-10-12---11-11---11-11-
E|-10-12-12-10-10-12-12-10-12----10-12-12-10-10-12-0-------0-------

http://www.guitartabcreator.com
Guitar Tab Creator is intended to store guitar tab created through the tool. It currently does not support in-line text editing. Any text you place in here will be lost. If you need to comment on your tab, please use the "Tab Notes" section located below.