Sound will begin in 5 seconds

Snakeskin Harpoon Part 2 - The Partakers

Chords
01234567891011121314151617181920212223
E
B
G
D
A
E
B
0 1 2 3 4 5 6 7 8 9 10 11 12 13 14 15 16 17 18 19 20 21 22 23
Song Science #1: How Pros Use 6 Chords to Write Hit Songs
(/) Slide Up  (\) Slide Down  (h) Hammer On  (p) Pull Off  (b) Bend (r) Release (v) Vibrato

Stave 1:

E|----------------------------------------------------------------------------------
B|----------------------------------------------------------------------------------
G|--------------------------------------------------------------------------------7b
D|--------------------------------------------------------------------------------5-
A|--------------------------5--5--5-----------------------------------5--5--5-------
E|--5--5--5--5--7--7--7--7-----------7--5--5--5--5--5--5--7--7--7--7-----------7----

Stave 2:

E|--------------------------------------------------
B|--------------------------------------------------
G|----------14--16--16--14h16p14h16p14--------------
D|--14--16------------------------------14--16------
A|----------------------------------------------14--
E|--------------------------------------------------

Stave 3:

E|-------------------------------
B|-------------------------------
G|----------------------5-----7--
D|--------------5--5h7-----7--5--
A|--------5--7-------------------
E|--5--7-------------------------

http://www.guitartabcreator.com
Guitar Tab Creator is intended to store guitar tab created through the tool. It currently does not support in-line text editing. Any text you place in here will be lost. If you need to comment on your tab, please use the "Tab Notes" section located below.