Skin is my

01234567891011121314151617181920212223
E
B
G
D
A
E
B
0 1 2 3 4 5 6 7 8 9 10 11 12 13 14 15 16 17 18 19 20 21 22 23
(/) Slide Up  (\) Slide Down  (h) Hammer On  (p) Pull Off  (b) Bend (r) Release (v) Vibrato

Stave 1:

G|-----------------7--------8-----------------------------------------------8--------------------------------------------------------------------------------------
D|--------------------7--9-----7--9--7--------------------------------7--9-----7--9--7-----------------------------------------------------------------------------
A|--7--------------------------------------------------7--------------------------------------7-----------------------------------------------------------4--6--7--
E|-----------------------------------------------------------------------------------------------4--5-----------------------------------------6--7--9--------------
B|-----7--------------------------------------------------7--------------------------------------------4-----6--7--11-----13--14--6-----8--9-----------------------

Stave 2:

G|--5-----7--------7--------------------------------------
D|-----7-----7--5-----7--7--7--7-----3--x-----7--7--7--7--
A|--------------------------------------------9--9--9--9--
E|--------------------------------------------------------
B|--------------------------------------------------------

							http://www.guitartabcreator.com
Chords

Instruments
{"strings":[[[".",".","_","_","_",7,".",".",8,".",".",".","_","_","_","_","_",".",".","_","_","_",".",".",8,".",".",".","_","_",".",".",".",".",".",".",".",".",".",".",".",".",".",".",".",".",".",".",".",".",".","."],[".",".","_","_","_",".",7,9,".",7,9,7,"_","_","_","_","_",".",".","_","_","_",7,9,".",7,9,7,"_","_",".",".",".",".",".",".",".",".",".",".",".",".",".",".",".",".",".",".",".",".",".","."],[7,".","_","_","_",".",".",".",".",".",".",".","_","_","_","_","_",7,".","_","_","_",".",".",".",".",".",".","_","_",7,".",".",".",".",".",".",".",".",".",".",".",".",".",".",".",".",".",".",4,6,7],[".",".","_","_","_",".",".",".",".",".",".",".","_","_","_","_","_",".",".","_","_","_",".",".",".",".",".",".","_","_",".",4,5,".",".",".",".",".",".",".",".",".",".",".",".",6,7,9,".",".",".","."],[".",7,"_","_","_",".",".",".",".",".",".",".","_","_","_","_","_",".",7,"_","_","_",".",".",".",".",".",".","_","_",".",".",".",4,".",6,7,11,".",13,14,6,".",8,9,".",".",".",".",".",".","."]],[[5,"_",7,".",".",7,".",".",".",".",".","_","_","_",".",".",".","."],[".",7,".",7,5,".",7,7,7,7,".",3,"x","_",7,7,7,7],[".","_",".",".",".",".",".",".",".",".",".","_","_","_",9,9,9,9],[".","_",".",".",".",".",".",".",".",".",".","_","_","_",".",".",".","."],[".","_",".",".",".",".",".",".",".",".",".","_","_","_",".",".",".","."]]],"numberofstrings":5,"notes":["G","D","A","E","B"],"capo":0,"stringnotes":["G2","D2","A1","E1","B0"],"comments":["Stave 1:","Stave 2:"],"timing":[["W","W",null,null,null,"W","W","W","W","W","W","W",null,null,null,null,null,"W","W",null,null,null,"W","W","W","W","W","W",null,null,"W","W","W","W","W","W","W","W","W","W","W","W","W","W",null,null,"W",null,null,"W","W","W","W"],[null,"W","W","W","W","W","W","W","W","W","W",null,null,null,"W",null,null,"W","W"]],"timingvisible":false,"tabcounter":18,"stave":1,"totalstaves":2,"instrument":"5bass","selectedtuning":"5bass","version":"13"}

Member for

1 month 3 weeks
Submitted by 1mlb7x1 on Sun, 2021-02-28 16:44