Sound will begin in 5 seconds

again

Chords
01234567891011121314151617181920212223
E
B
G
D
A
E
B
0 1 2 3 4 5 6 7 8 9 10 11 12 13 14 15 16 17 18 19 20 21 22 23
Song Science #1: How Pros Use 6 Chords to Write Hit Songs
(/) Slide Up  (\) Slide Down  (h) Hammer On  (p) Pull Off  (b) Bend (r) Release (v) Vibrato

Stave 1:

E|-----------5-----------5-----------3-----------6-----------1-----------3-----------0-----------3/
B|--------3-----3-----------------3-----3-----------------3-----3-----------------1-----1----------
G|-----5-----------5-----------3-----------3-----------2-----------2-----------2-----------2-------
D|--0-----------------0-----0-----------------0-----0-----------------0-----0-----------------0----
A|-------------------------------------------------------------------------------------------------
E|-------------------------------------------------------------------------------------------------

Stave 2:

E|-------------3p0-------------------1p0-----------------------------------0--------------------
B|-----1p0-------------------3p0-------------------------0-----1-----3--------1-----3-----0-----
G|----------------------------------------------------2-----2-----2-----2--------2-----2-----0--
D|----------2--------------------------------------2--------------------------------------------
A|--3-------------------------------------2--3--0-----------------------------------------------
E|------------------0--2--3-------0-------------------------------------------------------------

Stave 3:

E|-------------3p0-------------------1p0--------------------
B|-----1p0-------------------3p0-------------------------0--
G|----------------------------------------------------2-----
D|----------2--------------------------------------2--------
A|--3-------------------------------------2--3--0-----------
E|------------------0--2--3-------0-------------------------

Stave 4:

E|-------------3p0-------------------1p0--------
B|-----1p0-------------------3p0----------------
G|----------------------------------------------
D|----------2-----------------------------------
A|--3-------------------------------------2--3--
E|------------------0--2--3-------0-------------

Stave 5:

E|-----------------------------0-----------------------------------------1-----------------
B|-----------0-----1-----3--------1-----3-----0-----------0-----1-----3-----3-----0-----1--
G|--------2-----2-----2-----2--------2-----2-----------2-----2-----2-----------2-----2-----
D|-----2--------------------------------------------2--------------------------------------
A|--0--------------------------------------------0-----------------------------------------
E|-----------------------------------------------------------------------------------------

Stave 6:

E|-----------------------------0--------------------------------------------------------------------
B|-----------0-----1-----3--------1-----3-----0--------------0-----1-----3-----3--3--3--3--3--3-----
G|--------2-----2-----2-----2--------2-----2-----2--------2-----2-----2--------2--2--2--2--2--2-----
D|-----2-----------------------------------------------2-----------------------2--2--2--2--2--2-----
A|--0-----------------------------------------------0--------------------------0--0--0--0--0--0-----
E|--------------------------------------------------------------------------------------------------

Stave 7:

E|-----------------x-----x--------------0-----0-----------5-----------7--------5--------
B|-----------------3-----3--------------0--------0-----------5-----------5--------5-----
G|-----------------2-----2-----4--------6-----------6-----------6-----------6--------6--
D|-----------------3-----3-----5--------7-----------------------------------------------
A|-----------x--x--x-----x--x--5-----x--7-----------------------------------------------
E|--0--1-----x--x--1-----1--x--3-----x--5-----------------------------------------------

Stave 8:

E|-----------------x-----x--------------0--------0-----------
B|-----------------3-----3--------------0-----------0--------
G|-----------------2-----2-----4--------6--------------6-----
D|-----------------3-----3-----5--------7-----------------7--
A|-----------x--x--x-----x--x--5-----x--7--------------------
E|--0--1-----x--x--1-----1--x--3-----x--5-----5--------------

Stave 9:

E|-------------3p0-------------------1p0--------
B|-----1p0-------------------3p0----------------
G|----------------------------------------------
D|----------2-----------------------------------
A|--3-------------------------------------2--3--
E|------------------0--2--3-------0-------------

Stave 10:

E|--
B|--
G|--
D|--
A|--
E|--

http://www.guitartabcreator.com
Guitar Tab Creator is intended to store guitar tab created through the tool. It currently does not support in-line text editing. Any text you place in here will be lost. If you need to comment on your tab, please use the "Tab Notes" section located below.