Sound will begin in 5 seconds

Blues Licks

Chords
01234567891011121314151617181920212223
E
B
G
D
A
E
B
0 1 2 3 4 5 6 7 8 9 10 11 12 13 14 15 16 17 18 19 20 21 22 23
Song Science #1: How Pros Use 6 Chords to Write Hit Songs
(/) Slide Up  (\) Slide Down  (h) Hammer On  (p) Pull Off  (b) Bend (r) Release (v) Vibrato

Stave 1:

E|--0------------------------------------------------------
B|--1------------------------------------------------------
G|--2-----2--2-----4b5--------2--2--2-----4b5-----4--2-----
D|--2-----------4----------4-----------4----------------4--
A|--0------------------------------------------------------
E|---------------------------------------------------------

Stave 2:

E|--0-----8b10-----8b10--5-----8--5------------------------
B|--1--------------------------------8--5h8p5--------------
G|--2------------------------------------------7--5--7--5--
D|--2------------------------------------------------------
A|--0------------------------------------------------------
E|---------------------------------------------------------

Stave 3:

E|--1-------------10--12--11--10-------------------------------------10--12--11--10------12----------
B|--3---------10------------------13--12--10---------------------10------------------13------13------
G|--2-----11----------------------------------10-------------11----------------------------------14--
D|--0---------------------------------------------13--12---------------------------------------------
A|---------------------------------------------------------------------------------------------------
E|---------------------------------------------------------------------------------------------------

Stave 4:

E|--0-------------5--------8--5---------------------------------------------
B|--1----------5-----8--5-----------8--5--------------------5h7--5h7--------
G|--2-----7b9-----------------------------7-----7--5---------------------5--
D|--2-------------------------------------------------7---------------7-----
A|--0-----------------------------------------------------------------------
E|--------------------------------------------------------------------------

Stave 5:

E|--0----------7-------------
B|--0-----8b9-----8b9--8-----
G|--0---------------------9--
D|--2------------------------
A|--2------------------------
E|--0------------------------

Stave 6:

E|--1--------5--7--8--7-----5---------------
B|--3-----7--------------7------------------
G|--2-----------------------------7b9r7--5--
D|--0---------------------------------------
A|------------------------------------------
E|------------------------------------------

Stave 7:

E|--0--------------5--------8b9-----8b9--5--------5--------
B|--1--------5--7-----8--5---------------------5-----------
G|--2-----5------------------------------------------7-----
D|--2---------------------------------------------------7--
A|--0------------------------------------------------------
E|---------------------------------------------------------

Stave 8:

E|--0----------------------------------------------------------
B|--1----------------------------------------------------------
G|--2-----7b9--5-----7--------5-----------------5--7b9--7b9r5--
D|--2-------------------7--------7--6--5-----7-----------------
A|--0----------------------------------------------------------
E|-------------------------------------------------------------

Stave 9:

E|--0--------------------------------------------------5--------5-----------
B|--1-----8--8--8-----8--8--8-----8--8--8--------------5-----5-----5--8b10--
G|--2-----9--9--9-----9--9--9-----9--9--9-----7--5--------------------------
D|--2-----------------------------------------------7-----------------------
A|--0-----------------------------------------------------------------------
E|--------------------------------------------------------------------------

Stave 10:

E|--1------------------------------------------------------5--
B|--3-----8--5------------5--------8--5-----------------5-----
G|--2-----------7b9r7--5-----5-----------7b9r7--5--7b9--------
D|--0---------------------------------------------------------
A|------------------------------------------------------------
E|------------------------------------------------------------

Stave 11:

E|--0---------------------------------------------------------
B|--1-----12b15--12--11--10--8-----------8--8--8--8--7--6--5--
G|--2---------------------------9--8-----9--9--9--9--8--7--6--
D|--2---------------------------------------------------------
A|--0---------------------------------------------------------
E|------------------------------------------------------------

Stave 12:

E|--0---------------------------------
B|--0-----12--12--12--12--14--15--16--
G|--0---------------------------------
D|--2-----13--13--13--13--14--15--16--
A|--2---------------------------------
E|--0---------------------------------

Stave 13:

E|--1---------------------------------
B|--3-----10--10--10--10--12--13--14--
G|--2---------------------------------
D|--0-----11--11--11--11--12--13--14--
A|------------------------------------
E|------------------------------------

Stave 14:

E|--0-----8--5-----8--5-----8--5--------------------------------------
B|--1-----------5--------5--------5--8--5--------------------8--------
G|--2--------------------------------------7--5--------7--9-----9--9--
D|--2--------------------------------------------7--------------------
A|--0-----------------------------------------------------------------
E|--------------------------------------------------------------------

Stave 15:

E|--0-----------------------------------------8--
B|--1-----8b10-----------10--10--8-----8--10-----
G|--2-----------5-------------------9------------
D|--2--------------7-----------------------------
A|--0--------------------------------------------
E|-----------------------------------------------

Stave 16:

E|--0--------------5-----5----------------------------8--
B|--1--------5--8-----------8--5--------10-----8--10-----
G|--2-----7---------------------------------9------------
D|--2-----------------------------7----------------------
A|--0----------------------------------------------------
E|-------------------------------------------------------

Stave 17:

E|--1--------------------10-----10------------------------12--11--10--11p10------
B|--3------------10--12-------------12----------------10---------------------13--
G|--2-----10h11-------------------------10---------------------------------------
D|--0---------------------------------------12-----------------------------------
A|-------------------------------------------------------------------------------
E|-------------------------------------------------------------------------------

Stave 18:

E|--0-----12------12------12-----------------12------12----------
B|--1-----13------13------13-----------------13------13----------
G|--2---------14------14-------------12--14------14------14--14--
D|--2----------------------------14------------------------------
A|--0------------------------------------------------------------
E|---------------------------------------------------------------

Stave 19:

E|--0-----5--7--5--5--5--5--5--------------
B|--0-----5--5--5--8--7--5--5--------5--6--
G|--0-----------------------------7--------
D|--2--------------------------------------
A|--2--------------------------------------
E|--0--------------------------------------

Stave 20:

E|--1--------5-----------3-----------2-----------0-----
B|--3-----7-----7-----5-----5-----3-----3-----1-----1--
G|--2--------------------------------------------------
D|--0--------------------------------------------------
A|-----------------------------------------------------
E|-----------------------------------------------------

Stave 21:

E|--0--------5-----------5-----------5--------5--------5--------
B|--1-----8-----8-----7-----7-----6-----6-----5-----7-----7--5--
G|--2-----------------------------------------------------------
D|--2-----------------------------------------------------------
A|--0-----------------------------------------------------------
E|--------------------------------------------------------------

Stave 22:

E|--0-----12b14--12--12b14----------------------------------------
B|--1-----------------------12b14--10------10------10------12b14--
G|--2----------------------------------11------11------11---------
D|--2-------------------------------------------------------------
A|--0-------------------------------------------------------------
E|----------------------------------------------------------------

Stave 23:

E|--0-----5---------------------5----------------8--
B|--1-----5h8p5-----------------5h8p5-----8--10-----
G|--2---------------7--5----------------------------
D|--2---------------------7-------------------------
A|--0-----------------------------------------------
E|--------------------------------------------------

Stave 24:

E|--1-------------5--8--5-----------------------------------------
B|--3----------5-----------8--10-----10-----10--8-----------------
G|--2-----7b9--------------------------------------9--8--7--5-----
D|--0----------------------------------------------------------7--
A|----------------------------------------------------------------
E|----------------------------------------------------------------

Stave 25:

E|--0-----------------------------------------------------------
B|--1-----15b17--15--13------13---------------------------------
G|--2--------------------14---------14--12------14--12------14--
D|--2---------------------------------------14----------14------
A|--0-----------------------------------------------------------
E|--------------------------------------------------------------

Stave 26:

E|--0-------------------------------------------------------10--12--
B|--0-----12b14--12--12--12b14--12--9---------------10--13----------
G|--0----------------------------------9-----9--12------------------
D|--2---------------------------------------------------------------
A|--2---------------------------------------------------------------
E|--0---------------------------------------------------------------

Stave 27:

E|--1------------------------------------------
B|--3-----12----------------12-----------------
G|--2---------10h11-------------10h11----------
D|--0----------------12----------------12--10--
A|---------------------------------------------
E|---------------------------------------------

Stave 28:

E|--0--------5--7--5-----8--5--------------------------------
B|--1-----7--------------------8--5--------------------------
G|--2--------------------------------7--5-----------5--7--9--
D|--2--------------------------------------7-----7-----------
A|--0--------------------------------------------------------
E|-----------------------------------------------------------

http://www.guitartabcreator.com
Guitar Tab Creator is intended to store guitar tab created through the tool. It currently does not support in-line text editing. Any text you place in here will be lost. If you need to comment on your tab, please use the "Tab Notes" section located below.