Sound will begin in 5 seconds

And So I Watch You From Afar - Gang (Starting never stopping)

01234567891011121314151617181920212223
E
B
G
D
A
E
B
0 1 2 3 4 5 6 7 8 9 10 11 12 13 14 15 16 17 18 19 20 21 22 23
Song Science #1: How Pros Use 6 Chords to Write Hit Songs
(/) Slide Up  (\) Slide Down  (h) Hammer On  (p) Pull Off  (b) Bend (r) Release (v) Vibrato

Stave 1:

D|---------------------10--0--12--0--|---------------------10--0--12--0--|--
A|--0--9--0--12--0--0----------------|--0--9--0--12--0--0----------------|--
F|-----------------------------------|-----------------------------------|--
C|-----------------------------------|-----------------------------------|--
G|-----------------------------------|-----------------------------------|--
D|-----------------------------------|-----------------------------------|--

Stave 2:

D|----------------------16--0--19--0--|----------------------16--0--19----|--
A|--0--15--0--19--0--0----------------|--0--15--0--19--0--0---------------|--
F|------------------------------------|-----------------------------------|--
C|------------------------------------|-----------------------------------|--
G|------------------------------------|-----------------------------------|--
D|------------------------------------|-----------------------------------|--

Stave 3:

D|----------------------7--0--9--0--|--------------------7--0--9--0--|--
A|----0--7--0--9--0--0--------------|--0--7--0--9--0--0--------------|--
F|----------------------------------|--------------------------------|--
C|----------------------------------|--------------------------------|--
G|----------------------------------|--------------------------------|--
D|----------------------------------|--------------------------------|--

Stave 4:

D|----------------------14--0--16--0--|----------------------14--0--16--0--
A|--0--14--0--15--0--0----------------|--0--14--0--15--0--0----------------
F|------------------------------------|------------------------------------
C|------------------------------------|------------------------------------
G|------------------------------------|------------------------------------
D|------------------------------------|------------------------------------

http://www.guitartabcreator.com
Guitar Tab Creator is intended to store guitar tab created through the tool. It currently does not support in-line text editing. Any text you place in here will be lost. If you need to comment on your tab, please use the "Tab Notes" section located below.