Angel eyes lead

01234567891011121314151617181920212223
E
B
G
D
A
E
B
0 1 2 3 4 5 6 7 8 9 10 11 12 13 14 15 16 17 18 19 20 21 22 23
(/) Slide Up  (\) Slide Down  (h) Hammer On  (p) Pull Off  (b) Bend (r) Release (v) Vibrato

Stave 1:

E|--------------------------------------------------------------:|--|:--------------------:|--|:-----------------------:|--------------------------------------------------
B|--------------------------------------------------------------:|--|:--------------------:|--|:-----------------------:|--------------------------------------------------
G|-----------------5--7--7--7--5--------7--7--7--5--7--5--------:|--|:--------------------:|--|:-----------------------:|--------------------------------------------------
D|-----------5--7-----------------------------------------------:|--|:--7--7--7--5--------:|--|:--7--7--7--7--7--7--8--:|-----10--9--9--6-----------------------10--17-----
A|--5--7--8-----------------------8--8--------------------8--8--:|--|:--------------3--3--:|--|:-----------------------:|--8---------------11--8--11-----8--11-------------
E|--------------------------------------------------------------:|--|:--------------------:|--|:-----------------------:|-------------------------------------------15-----

Stave 2:

E|--------------:|--|:-----------------------------------------------------------------------------------------------------------------------------
B|--------------:|--|:-----------------------------------------------------------------------------------------------------------------------------
G|--------------:|--|:-----------------------------------------------------------------------------------------------------------------------------
D|--16--15--10--:|--|:-----------------------------------------------------------------------------------------------------------------------------
A|--------------:|--|:------12--11--8--------------------------12--17--16--15--12------12--11--11--8--------------------------8--10--8--10--8------
E|--14--13--8---:|--|:--10-------------13--10--13--15--10--13----------------------10-----------------13--10--13--15--10--13-------------------10--

							http://www.guitartabcreator.com
Chords

Instruments
{"strings":[[[".",".",".",".",".",".",".",".",".",".",".",".",".",".",".",".",".",".",".",".",":|","|:",".",".",".",".",".",".",":|","|:",".",".",".",".",".",".",".",":|",".",".",".",".",".",".",".",".","_",".",".",".",".","."],[".",".",".",".",".",".",".",".",".",".",".",".",".",".",".",".",".",".",".",".",":|","|:",".",".",".",".",".",".",":|","|:",".",".",".",".",".",".",".",":|",".",".",".",".",".",".",".",".","_",".",".",".",".","."],[".",".",".",".",".",5,7,7,7,5,".",".",7,7,7,5,7,5,".",".",":|","|:",".",".",".",".",".",".",":|","|:",".",".",".",".",".",".",".",":|",".",".",".",".",".",".",".",".","_",".",".",".",".","."],[".",".",".",5,7,".",".",".",".",".",".",".",".",".",".",".",".",".",".",".",":|","|:",7,7,7,5,".",".",":|","|:",7,7,7,7,7,7,8,":|",".",10,9,9,6,".",".",".","_",".",".",10,17,"."],[5,7,8,".",".",".",".",".",".",".",8,8,".",".",".",".",".",".",8,8,":|","|:",".",".",".",".",3,3,":|","|:",".",".",".",".",".",".",".",":|",8,".",".",".",".",11,8,11,"_",8,11,".",".","."],[".",".",".",".",".",".",".",".",".",".",".",".",".",".",".",".",".",".",".",".",":|","|:",".",".",".",".",".",".",":|","|:",".",".",".",".",".",".",".",":|",".",".",".",".",".",".",".",".","_",".",".",".",15,"."]],[[".",".",".",":|","|:",".",".",".",".",".",".",".",".",".",".",".",".",".",".",".",".",".",".",".",".",".",".",".",".",".",".",".",".",".",".",".","."],[".",".",".",":|","|:",".",".",".",".",".",".",".",".",".",".",".",".",".",".",".",".",".",".",".",".",".",".",".",".",".",".",".",".",".",".",".","."],[".",".",".",":|","|:",".",".",".",".",".",".",".",".",".",".",".",".",".",".",".",".",".",".",".",".",".",".",".",".",".",".",".",".",".",".",".","."],[16,15,10,":|","|:",".",".",".",".",".",".",".",".",".",".",".",".",".",".",".",".",".",".",".",".",".",".",".",".",".",".",".",".",".",".",".","."],[".",".",".",":|","|:",".",12,11,8,".",".",".",".",".",".",12,17,16,15,12,".",12,11,11,8,".",".",".",".",".",".",8,10,8,10,8,"."],[14,13,8,":|","|:",10,".",".",".",13,10,13,15,10,13,".",".",".",".",".",10,".",".",".",".",13,10,13,15,10,13,".",".",".",".",".",10]]],"numberofstrings":6,"notes":["E","B","G","D","A","E","B"],"capo":0,"stringnotes":["E4","B3","G3","D3","A2","E2"],"comments":["Stave 1:","Stave 2:"],"timing":[["W","W","W","W","W","W","W","W","W","W","W","W","W","W","W","W","W","W","W","W",null,null,"W","W","W","W","W","W",null,null,"W","W","W","W","W","W","W",null,"W","W","W","W","W","W","W","W","W","W","W","W","W"],["W","W","W",null,null,"W","W","W","W","W","W","W","W","W","W","W","W","W","W","W","W","W","W","W","W","W","W","W","W","W","W","W","W","W","W","W","W"]],"timingvisible":false,"tabcounter":37,"stave":1,"totalstaves":2,"instrument":"6guitar","selectedtuning":"6_standard","version":"13"}

Member for

8 months 2 weeks
About Me
shameless plug
Submitted by Sacca on Mon, 2022-01-17 14:31