June- Lead Guitar Tabs

01234567891011121314151617181920212223
E
B
G
D
A
E
B
0 1 2 3 4 5 6 7 8 9 10 11 12 13 14 15 16 17 18 19 20 21 22 23
(/) Slide Up  (\) Slide Down  (h) Hammer On  (p) Pull Off  (b) Bend (r) Release (v) Vibrato

Verse: 0:22 - Look out for the 7/7 at the end. Those are important to play for the next lead guitar part

E|--7--------7--------9--------10--------9--------7--------9--------7--------------------
B|-----7-----8--------8--------8---------8--------8--------8--------7-----------7--------
G|--------7--9--------9--------9---------9--------9--------9--------7--------------7-----
D|-----------7--------7--------7---------7--------7--------7--------7--------------------
A|---------------------------------------------------------------------------------------
E|---------------------------------------------------------------------------------------

Verse: 0:33 - Look out for the chord at the end. That's where the music kinda pauses

E|----------------------------------------------------------------------------7-----------
B|----------------------------------------------------------------------------8-----------
G|---------------------------------------11-----------11-----11-----11--------9-----------
D|--7--7--9--9--11--11--12--11--9------------9--9--9------9------9------------7-----------
A|----------------------------------------------------------------------------------------
E|----------------------------------------------------------------------------------------

Guitar Solo: 0:47 - It's x3/x1 if that makes sense.

E|--------7-----9-----10--9------------------7-----------7-----------7--------------------
B|-----8-----8-----8---------10-----------------7-----7-----7-----7-----------------------
G|--9----------------------------------------------7-----------7--------------------------
D|----------------------------------------------------------------------------------------
A|----------------------------------------------------------------------------------------
E|----------------------------------------------------------------------------------------

Pre-Chorus: 1:08 It's x3/x1 if that makes sense.

E|--9--------------7-----------7-----------7-----------7-----------7-----------------------
B|-----10------10-----8-----8-----------------7-----7-----7-----7--------------------------
G|---------11------------9-----------------------7-----------7-----------------------------
D|-----------------------------------------------------------------------------------------
A|-----------------------------------------------------------------------------------------
E|-----------------------------------------------------------------------------------------

Chorus: 1:19

E|-----------------------------------------------------------------------------------------
B|-----------------------------------------------------------------------------------------
G|--7-----11--------7-----11--------7-----11-----11--11-----11--9-----9--------------------
D|-----9---------9-----9---------9-----9------9----------7---------7-----------------------
A|-----------------------------------------------------------------------------------------
E|-----------------------------------------------------------------------------------------

Outro: 2:32 - 1st part of the guitar solo'ish part

E|------------------------------------------------------------------------------------------
B|----------------10--12-----------12-------------------------------------------------------
G|--7--9--11--12-----------------------11-----11-----11-----11--11-----11-----11-----11-----
D|-----------------------------------------9------9------9----------9------9------9---------
A|------------------------------------------------------------------------------------------
E|------------------------------------------------------------------------------------------

Outro: 2:51 - 2nd part of the guitar solo'ish part

E|-------------------------------------------------------------------------------------------
B|----------10------12------10------10-----------10--------10--7--7--8--7--------------------
G|------11------11------11------11-------------------9--9------------------9--7--------------
D|--12---------------------------------------------------------------------------------------
A|-------------------------------------------------------------------------------------------
E|-------------------------------------------------------------------------------------------

							http://www.guitartabcreator.com
Chords

Instruments
{"strings":[[[7,".",".",7,"_","_",9,"_","_",10,"_","_",9,"_","_",7,"_","_",9,"_","_",7,"_","_","_",".",".","_"],[".",7,".",8,"_","_",8,"_","_",8,"_","_",8,"_","_",8,"_","_",8,"_","_",7,"_","_","_",7,".","_"],[".",".",7,9,"_","_",9,"_","_",9,"_","_",9,"_","_",9,"_","_",9,"_","_",7,"_","_","_",".",7,"_"],[".",".",".",7,"_","_",7,"_","_",7,"_","_",7,"_","_",7,"_","_",7,"_","_",7,"_","_","_",".",".","_"],[".",".",".",".","_","_",".","_","_",".","_","_",".","_","_",".","_","_",".","_","_",".","_","_","_",".",".","_"],[".",".",".",".","_","_",".","_","_",".","_","_",".","_","_",".","_","_",".","_","_",".","_","_","_",".",".","_"]],[[".",".",".",".",".",".",".",".",".","_","_",".",".",".",".",".",".",".",".",".","_","_",7,"_","_","_"],[".",".",".",".",".",".",".",".",".","_","_",".",".",".",".",".",".",".",".",".","_","_",8,"_","_","_"],[".",".",".",".",".",".",".",".",".","_","_",11,".",".",".",11,".",11,".",11,"_","_",9,"_","_","_"],[7,7,9,9,11,11,12,11,9,"_","_",".",9,9,9,".",9,".",9,".","_","_",7,"_","_","_"],[".",".",".",".",".",".",".",".",".","_","_",".",".",".",".",".",".",".",".",".","_","_",".","_","_","_"],[".",".",".",".",".",".",".",".",".","_","_",".",".",".",".",".",".",".",".",".","_","_",".","_","_","_"]],[[".",".",7,".",9,".",10,9,".","_","_","_","_",7,".",".",".",7,".",".",".",7,"_","_","_","_","_","_"],[".",8,".",8,".",8,".",".",10,"_","_","_","_",".",7,".",7,".",7,".",7,".","_","_","_","_","_","_"],[9,".",".",".",".",".",".",".",".","_","_","_","_",".",".",7,".",".",".",7,".",".","_","_","_","_","_","_"],[".",".",".",".",".",".",".",".",".","_","_","_","_",".",".",".",".",".",".",".",".",".","_","_","_","_","_","_"],[".",".",".",".",".",".",".",".",".","_","_","_","_",".",".",".",".",".",".",".",".",".","_","_","_","_","_","_"],[".",".",".",".",".",".",".",".",".","_","_","_","_",".",".",".",".",".",".",".",".",".","_","_","_","_","_","_"]],[[9,".",".",".",7,".",".",".",7,"_","_","_",7,".",".",".",7,".",".",".",7,"_","_","_","_","_","_","_"],[".",10,".",10,".",8,".",8,".","_","_","_",".",7,".",7,".",7,".",7,".","_","_","_","_","_","_","_"],[".",".",11,".",".",".",9,".",".","_","_","_",".",".",7,".",".",".",7,".",".","_","_","_","_","_","_","_"],[".",".",".",".",".",".",".",".",".","_","_","_",".",".",".",".",".",".",".",".",".","_","_","_","_","_","_","_"],[".",".",".",".",".",".",".",".",".","_","_","_",".",".",".",".",".",".",".",".",".","_","_","_","_","_","_","_"],[".",".",".",".",".",".",".",".",".","_","_","_",".",".",".",".",".",".",".",".",".","_","_","_","_","_","_","_"]],[[".",".",".","_",".",".",".",".","_",".",".",".",".",".",".",".",".",".",".",".",".","_","_","_","_","_","_"],[".",".",".","_",".",".",".",".","_",".",".",".",".",".",".",".",".",".",".",".",".","_","_","_","_","_","_"],[7,".",11,"_",".",7,".",11,"_",".",7,".",11,".",11,11,".",11,9,".",9,"_","_","_","_","_","_"],[".",9,".","_",9,".",9,".","_",9,".",9,".",9,".",".",7,".",".",7,".","_","_","_","_","_","_"],[".",".",".","_",".",".",".",".","_",".",".",".",".",".",".",".",".",".",".",".",".","_","_","_","_","_","_"],[".",".",".","_",".",".",".",".","_",".",".",".",".",".",".",".",".",".",".",".",".","_","_","_","_","_","_"]],[[".",".",".",".",".",".","_","_","_",".",".",".",".",".",".",".",".",".",".",".",".",".",".",".","_"],[".",".",".",".",10,12,"_","_","_",12,".",".",".",".",".",".",".",".",".",".",".",".",".",".","_"],[7,9,11,12,".",".","_","_","_",".",11,".",11,".",11,".",11,11,".",11,".",11,".",11,"_"],[".",".",".",".",".",".","_","_","_",".",".",9,".",9,".",9,".",".",9,".",9,".",9,".","_"],[".",".",".",".",".",".","_","_","_",".",".",".",".",".",".",".",".",".",".",".",".",".",".",".","_"],[".",".",".",".",".",".","_","_","_",".",".",".",".",".",".",".",".",".",".",".",".",".",".",".","_"]],[[".",".",".",".",".",".",".",".",".","_","_","_",".",".",".",".",".",".",".",".",".",".","_","_","_","_"],[".",".",10,".",12,".",10,".",10,"_","_","_",10,".",".",10,7,7,8,7,".",".","_","_","_","_"],[".",11,".",11,".",11,".",11,".","_","_","_",".",9,9,".",".",".",".",".",9,7,"_","_","_","_"],[12,".",".",".",".",".",".",".",".","_","_","_",".",".",".",".",".",".",".",".",".",".","_","_","_","_"],[".",".",".",".",".",".",".",".",".","_","_","_",".",".",".",".",".",".",".",".",".",".","_","_","_","_"],[".",".",".",".",".",".",".",".",".","_","_","_",".",".",".",".",".",".",".",".",".",".","_","_","_","_"]]],"numberofstrings":6,"notes":["E","B","G","D","A","E","B"],"capo":0,"stringnotes":["E4","B3","G3","D3","A2","E2"],"comments":["Verse: 0:22 - Look out for the 7/7 at the end. Those are important to play for the next lead guitar part","Verse: 0:33 - Look out for the chord at the end. That's where the music kinda pauses","Guitar Solo: 0:47 - It's x3/x1 if that makes sense.","Pre-Chorus: 1:08 It's x3/x1 if that makes sense.","Chorus: 1:19","Outro: 2:32 - 1st part of the guitar solo'ish part","Outro: 2:51 - 2nd part of the guitar solo'ish part"],"timing":[["W","W","W","W","W","W","W","W","W","W","W","W","W","W","W","W","W","W","W","W","W","W","W","W","W","W","W","W"],["W","W","W","W","W","W","W","W","W","W","W","W","W","W","W","W","W","W","W","W","W","W","W","W","W","W"],["W","W","W","W","W","W","W","W","W","W","W","W","W","W","W","W","W","W","W","W","W","W","W","W","W","W","W","W"],["W","W","W","W","W","W","W","W","W","W","W","W","W","W","W","W","W","W","W","W","W","W","W","W","W","W","W","W"],["W","W","W","W","W","W","W","W","W","W","W","W","W","W","W","W","W","W","W","W","W","W","W","W","W","W","W"],["W","W","W","W","W","W","W","W","W","W","W","W","W","W","W","W","W","W","W","W","W","W","W","W","W"],["W","W","W","W","W","W","W","W","W","W","W","W","W","W","W","W","W","W","W","W","W","W","W","W","W","W"]],"timingvisible":false,"tabcounter":26,"stave":6,"totalstaves":7,"instrument":"6guitar","selectedtuning":"6_standard","version":"13"}

Member for

3 years 4 months
Submitted by RyanWelch566 on Sun, 2021-11-14 16:07