Brothers in arms

01234567891011121314151617181920212223
E
B
G
D
A
E
B
0 1 2 3 4 5 6 7 8 9 10 11 12 13 14 15 16 17 18 19 20 21 22 23
(/) Slide Up  (\) Slide Down  (h) Hammer On  (p) Pull Off  (b) Bend (r) Release (v) Vibrato

Capo Fret 4

Stave 1:

E|-----------------------------------------------------------------------------------------------------
B|------------------------------------------------------------------0----------------------------------
G|--------------------0--2--0----------0--2--2p0-----------------0-----2-----0--2-----2/4--2p0---------
D|--------------------2--2--2-----2/4-------------4--2--0h2p0h2--------2-----2--0---------------4p2p0--
A|-------2--4p2--2h4--3--0--3---------------------------3--------------0-----3--0----------------------
E|--1/2---------------3-----3---------------------------------------------------------0----------------

Stave 2:

E|-------------------------------------------------------------------
B|--------------0-------------------------------1--------------------
G|-----------0-----2-----0--2--0----------0-----2-----0--------------
D|--0h2h4p2--------2-----2--0--2-----2h4--2-----2-----2-----2-----2--
A|--3--------------0-----3--0-------------3-----0--------------------
E|-----------------------------0----------------------0--------0-----

Stave 3:

E|--
B|--
G|--
D|--
A|--
E|--

							http://www.guitartabcreator.com
Chords

Instruments
{"strings":[[[".",".",".",".",".",".",".",".",".",".",".","_",".","_",".",".",".",".",".",".",".",".",".",".",".",".",".",".",".",".",".",".",".",".","_",".",".","_",".",".",".",".",".",".",".",".",".",".","."],[".",".",".",".",".",".",".",".",".",".",".","_",".","_",".",".",".",".",".",".",".",".",".",".",".",".",".",".",".",".",".",".",0,".","_",".",".","_",".",".",".",".",".",".",".",".",".",".","."],[".",".",".",".",".",".",".",".",".",".",0,2,0,"_",".",".",".",0,2,2,"p",0,".",".",".",".",".",".",".",".",".",0,".",2,"_",0,2,"_",2,"/",4,2,"p",0,".",".",".",".","."],[".",".",".",".",".",".",".",".",".",".",2,2,2,"_",2,"/",4,".",".",".",".",".",4,2,0,"h",2,"p",0,"h",2,".",".",2,"_",2,0,"_",".",".",".",".",".",".",4,"p",2,"p",0],[".",".",".",2,4,"p",2,2,"h",4,3,0,3,"_",".",".",".",".",".",".",".",".",".",".",3,".",".",".",".",".",".",".",".",0,"_",3,0,"_",".",".",".",".",".",".",".",".",".",".","."],[1,"/",2,".",".",".",".",".",".",".",3,"_",3,"_",".",".",".",".",".",".",".",".",".",".",".",".",".",".",".",".",".",".",".",".","_",".",".","_",0,".",".",".",".",".",".",".",".",".","."]],[[".",".",".",".",".",".",".",".",".",".","_",".",".",".","_",".",".",".",".","_",".","_",".","_",".",".","."],[".",".",".",".",".",".",".",".",0,".","_",".",".",".","_",".",".",".",".","_",1,"_",".","_",".",".","."],[".",".",".",".",".",".",".",0,".",2,"_",0,2,0,"_",".",".",".",0,"_",2,"_",0,"_",".",".","."],[0,"h",2,"h",4,"p",2,".",".",2,"_",2,0,2,"_",2,"h",4,2,"_",2,"_",2,"_",2,".",2],[3,".",".",".",".",".",".",".",".",0,"_",3,0,".","_",".",".",".",3,"_",0,"_",".","_",".",".","."],[".",".",".",".",".",".",".",".",".",".","_",".",".",0,"_",".",".",".",".","_",".","_",0,"_",".",0,"."]],[[],[],[],[],[],[]]],"numberofstrings":6,"notes":["E","B","G","D","A","E","B"],"capo":"4","stringnotes":["E4","B3","G3","D3","A2","E2"],"comments":["Stave 1:","Stave 2:","Stave 3:","Stave 4:","Stave 5:","Stave 6:"],"timing":[["W",null,"W","W","W",null,"W","W",null,"W","W","W","W","W","W",null,"W","W","W","W",null,"W","W","W","W",null,"W",null,"W",null,"W","W","W","W","W","W","W","W","W",null,"W","W",null,"W","W",null,"W",null,"W"],["W",null,"W",null,"W",null,"W","W","W","W","W","W","W","W","W","W",null,"W","W","W","W","W","W","W","W","W","W"],[],[],[],[]],"timingvisible":false,"tabcounter":0,"stave":2,"totalstaves":3,"instrument":"6guitar","selectedtuning":"6_standard","version":"13"}

Member for

2 months 1 week
Submitted by Rodrigo Ribeiro on Fri, 2021-11-12 10:23