14.3 Billion Years | Drop D Capo 5th fret WIP

01234567891011121314151617181920212223
E
B
G
D
A
E
B
0 1 2 3 4 5 6 7 8 9 10 11 12 13 14 15 16 17 18 19 20 21 22 23
(/) Slide Up  (\) Slide Down  (h) Hammer On  (p) Pull Off  (b) Bend (r) Release (v) Vibrato

Capo Fret 5

Stave 1:

E|--------------------------------------------------------------------------------------
B|--------------0-----------0--------0--------------1--------0-----------0--------0-----
G|-----0-----0-----0--------------0-----0-----------------0-----0--------------0-----0--
D|--------0--------------------0-----------------------0--------------------0-----------
A|--3--------------------3--------------------------------------------------------------
D|-----------------------------------------------0--------------------0-----------------

Stave 2:

E|-----------------------------------------------------------------------------------------------
B|--------------------------------0-----------0--------0-----------1--------0--------------3-----
G|-----2--4--------------0-----0-----0--------------0-----0--------------0-----0-----2--4-----4--
D|-----------4--------------0--------------------0--------------------0--------------------------
A|-----------------------------------------------------------------------------------------------
D|--0-----------------2--------------------2--------------------0-----------------0--------------

							http://www.guitartabcreator.com
Chords

Instruments
{"strings":[[[".",".",".",".",".",".","_",".",".",".",".",".",".","_","_",".",".",".",".",".",".","_",".",".",".",".",".","."],[".",".",".",".",0,".","_",".",0,".",".",0,".","_","_",".",1,".",".",0,".","_",".",0,".",".",0,"."],[".",0,".",0,".",0,"_",".",".",".",0,".",0,"_","_",".",".",".",0,".",0,"_",".",".",".",0,".",0],[".",".",0,".",".",".","_",".",".",0,".",".",".","_","_",".",".",0,".",".",".","_",".",".",0,".",".","."],[3,".",".",".",".",".","_",3,".",".",".",".",".","_","_",".",".",".",".",".",".","_",".",".",".",".",".","."],[".",".",".",".",".",".","_",".",".",".",".",".",".","_","_",0,".",".",".",".",".","_",0,".",".",".",".","."]],[[".",".",".",".","_","_",".",".",".",".",".",".","_",".",".",".",".",".",".","_",".",".",".",".",".",".",".",".",".",".","."],[".",".",".",".","_","_",".",".",".",".",0,".","_",".",0,".",".",0,".","_",".",1,".",".",0,".",".",".",".",3,"."],[".",2,4,".","_","_",".",0,".",0,".",0,"_",".",".",".",0,".",0,"_",".",".",".",0,".",0,".",2,4,".",4],[".",".",".",4,"_","_",".",".",0,".",".",".","_",".",".",0,".",".",".","_",".",".",0,".",".",".",".",".",".",".","."],[".",".",".",".","_","_",".",".",".",".",".",".","_",".",".",".",".",".",".","_",".",".",".",".",".",".",".",".",".",".","."],[0,".",".",".","_","_",2,".",".",".",".",".","_",2,".",".",".",".",".","_",0,".",".",".",".",".",0,".",".",".","."]]],"numberofstrings":6,"notes":["E","B","G","D","A","D","B"],"capo":"5","stringnotes":["E4","B3","G3","D3","A2","D3"],"comments":["Stave 1:","Stave 2:"],"timing":[["W","W","W","W","W","W","W","W","W","W","W","W","W","W","W","W","W","W","W","W","W","W","W","W","W","W","W","W"],["W","W","W","W","W","W","W","W","W","W","W","W","W","W","W","W","W","W","W","W","W","W","W","W","W","W","W","W","W","W","W"]],"timingvisible":false,"tabcounter":31,"stave":1,"totalstaves":2,"instrument":"6guitar","selectedtuning":"6_standard","version":"13"}

Member for

1 week
Picture
Submitted by oliversr on Wed, 2022-01-12 23:52