Mr Crowley

01234567891011121314151617181920212223
E
B
G
D
A
E
B
0 1 2 3 4 5 6 7 8 9 10 11 12 13 14 15 16 17 18 19 20 21 22 23
(/) Slide Up  (\) Slide Down  (h) Hammer On  (p) Pull Off  (b) Bend (r) Release (v) Vibrato

Stave 1:

E|-----------------------|-----------------------------|--
B|-----------------------|-----------------------------|--
G|-----------0--2--------|--2--0-----0--2--4--5--------|--
D|--0--2--3--------2-----|--------3--------------5-----|--
A|--------------------0--|--------------------------3--|--
E|-----------------------|-----------------------------|--

Stave 2:

E|-----------------------------|--------------------------
B|-----------------3--5--------|--------------------------
G|--5--4--2--4--5--------4-----|--2--3--5--7--5--4--5--2--
D|--------------------------2--|--------------------------
A|-----------------------------|--------------------------
E|-----------------------------|--------------------------

Stave 3:

E|-----------------
B|-----------------
G|--2-----------2--
D|-----2-----2-----
A|--------0--------
E|-----------------

							http://www.guitartabcreator.com
Chords

Instruments
{"strings":[[[".",".",".",".",".",".",".","|",".",".",".",".",".",".",".",".",".","|"],[".",".",".",".",".",".",".","|",".",".",".",".",".",".",".",".",".","|"],[".",".",".",0,2,".",".","|",2,0,".",0,2,4,5,".",".","|"],[0,2,3,".",".",2,".","|",".",".",3,".",".",".",".",5,".","|"],[".",".",".",".",".",".",0,"|",".",".",".",".",".",".",".",".",3,"|"],[".",".",".",".",".",".",".","|",".",".",".",".",".",".",".",".",".","|"]],[[".",".",".",".",".",".",".",".",".","|",".",".",".",".",".",".",".","."],[".",".",".",".",".",3,5,".",".","|",".",".",".",".",".",".",".","."],[5,4,2,4,5,".",".",4,".","|",2,3,5,7,5,4,5,2],[".",".",".",".",".",".",".",".",2,"|",".",".",".",".",".",".",".","."],[".",".",".",".",".",".",".",".",".","|",".",".",".",".",".",".",".","."],[".",".",".",".",".",".",".",".",".","|",".",".",".",".",".",".",".","."]],[[".",".",".",".","."],[".",".",".",".","."],[2,".",".",".",2],[".",2,".",2,"."],[".",".",0,".","."],[".",".",".",".","."]]],"numberofstrings":6,"notes":["E","B","G","D","A","E","B"],"capo":0,"stringnotes":["E4","B3","G3","D3","A2","E2"],"comments":["Stave 1:","Stave 2:","Stave 3:"],"timing":[["W","W","W","W","W","W","W",null,"W","W","W","W","W","W","W","W","W"],["W","W","W","W","W","W","W","W","W",null,"W","W","W","W","W","W","W","W"],["W","W","W","W","W"]],"timingvisible":false,"tabcounter":5,"stave":2,"totalstaves":3,"instrument":"6guitar","selectedtuning":"6_standard","version":"13"}

Member for

4 years 1 month
About Me

Technical editor since 1991. Business editor since 2006. Guitarist since September 2017.

Submitted by Michael Edits on Sun, 2021-11-14 07:42