G Major Scale Position 1

01234567891011121314151617181920212223
E
B
G
D
A
E
B
0 1 2 3 4 5 6 7 8 9 10 11 12 13 14 15 16 17 18 19 20 21 22 23
(/) Slide Up  (\) Slide Down  (h) Hammer On  (p) Pull Off  (b) Bend (r) Release (v) Vibrato

Stave 1:

E|--------------------------
B|--------------------------
G|-----------------------0--
D|--------------0--2--4-----
A|-----0--2--3--------------
E|--3-----------------------

Stave 2:

E|-----------------0--2--3--
B|--------0--1--3-----------
G|--0--2--------------------
D|--------------------------
A|--------------------------
E|--------------------------

Stave 3:

E|--------------------------------------0--2--3--
B|-----------------------------0--1--3-----------
G|-----------------------0--2--------------------
D|--------------0--2--4--------------------------
A|-----0--2--3-----------------------------------
E|--3--------------------------------------------

							http://www.guitartabcreator.com
Chords

genre
Instruments
{"strings":[[[".",".",".",".",".",".",".","."],[".",".",".",".",".",".",".","."],[".",".",".",".",".",".",".",0],[".",".",".",".",0,2,4,"."],[".",0,2,3,".",".",".","."],[3,".",".",".",".",".",".","."]],[[".",".",".",".",".",0,2,3],[".",".",0,1,3,".",".","."],[0,2,".",".",".",".",".","."],[".",".",".",".",".",".",".","."],[".",".",".",".",".",".",".","."],[".",".",".",".",".",".",".","."]],[[".",".",".",".",".",".",".",".",".",".",".",".",0,2,3],[".",".",".",".",".",".",".",".",".",0,1,3,".",".","."],[".",".",".",".",".",".",".",0,2,".",".",".",".",".","."],[".",".",".",".",0,2,4,".",".",".",".",".",".",".","."],[".",0,2,3,".",".",".",".",".",".",".",".",".",".","."],[3,".",".",".",".",".",".",".",".",".",".",".",".",".","."]]],"numberofstrings":6,"notes":["E","B","G","D","A","E","B"],"capo":0,"stringnotes":["E4","B3","G3","D3","A2","E2"],"comments":["Stave 1:","Stave 2:","Stave 3:"],"timing":[["W","W","W","W","W","W","W","W"],["W","W","W","W","W","W","W","W"],["W","W","W","W","W","W","W","W","W","W","W","W","W","W","W"]],"timingvisible":false,"tabcounter":15,"stave":2,"totalstaves":3,"instrument":"6guitar","selectedtuning":"6_standard","version":"13"}

Member for

1 week
Submitted by dylankleinert on Thu, 2022-01-13 14:24