call out my name

01234567891011121314151617181920212223
E
B
G
D
A
E
B
0 1 2 3 4 5 6 7 8 9 10 11 12 13 14 15 16 17 18 19 20 21 22 23
(/) Slide Up  (\) Slide Down  (h) Hammer On  (p) Pull Off  (b) Bend (r) Release (v) Vibrato

Stave 1:

E|---------------------------------------------------------------------------------------------------------------------------------------
B|---------------------------------------------------------------------------------------------------------------------------------------
G|----------11--13/15--11h13--------11h13--11\10--10v------13--13/15--13--11--10-----------13--10------13--10----------11--13/15--11h13--
D|--13--13---------------------------------------------13-------------------------13v--11----------13----------13--13--------------------
A|---------------------------------------------------------------------------------------------------------------------------------------
E|---------------------------------------------------------------------------------------------------------------------------------------

Stave 2:

E|----------------------------------------------------------------------------------------------------------------------------------------------
B|---------14-----------------------------------------------------------------------------------------------------------------------------------
G|--13b15------15r13--11-------------11--11v--13--13/15--13--11--10----------13--10------13--10----------11--13/15--15/17\15--13--15r13--13b15--
D|------------------------11--11h13----------------------------------13--11----------13----------13--13-----------------------------------------
A|----------------------------------------------------------------------------------------------------------------------------------------------
E|----------------------------------------------------------------------------------------------------------------------------------------------

Stave 3:

E|----------------------------------16b18--
B|--------------11--14h16v--14--16---------
G|--13--11--13-----------------------------
D|-----------------------------------------
A|-----------------------------------------
E|-----------------------------------------

Stave 4:

E|--------
B|--------
G|--------
D|--------
A|--------
E|--------

Stave 5:

E|--
B|--
G|--
D|--
A|--
E|--

							http://www.guitartabcreator.com
Chords

Instruments
{"strings":[[[".",".",".",".",".",".",".",".",".","_","_",".",".",".",".",".",".",".",".",".",".",".",".",".",".",".",".",".",".",".",".",".",".",".",".",".",".",".",".",".",".",".",".","."],[".",".",".",".",".",".",".",".",".","_","_",".",".",".",".",".",".",".",".",".",".",".",".",".",".",".",".",".",".",".",".",".",".",".",".",".",".",".",".",".",".",".",".","."],[".",".",11,13,"/",15,11,"h",13,"_","_",11,"h",13,11,"\\",10,10,"v",".",13,13,"/",15,13,11,10,".",".",".",13,10,".",13,10,".",".",11,13,"/",15,11,"h",13],[13,13,".",".",".",".",".",".",".","_","_",".",".",".",".",".",".",".",".",13,".",".",".",".",".",".",".",13,"v",11,".",".",13,".",".",13,13,".",".",".",".",".",".","."],[".",".",".",".",".",".",".",".",".","_","_",".",".",".",".",".",".",".",".",".",".",".",".",".",".",".",".",".",".",".",".",".",".",".",".",".",".",".",".",".",".",".",".","."],[".",".",".",".",".",".",".",".",".","_","_",".",".",".",".",".",".",".",".",".",".",".",".",".",".",".",".",".",".",".",".",".",".",".",".",".",".",".",".",".",".",".",".","."]],[[null,null,".",".",".",".",".",".",".",".",".",".",".",".",".",".",".",".",".",".",".",".",".",".",".",".",".",".",".",".",".",".",".",".",".",".",".",".",".",".",".",".",".",".",".",".",".",".","."],[null,null,".",".",".",14,".",".",".",".",".",".",".",".",".",".",".",".",".",".",".",".",".",".",".",".",".",".",".",".",".",".",".",".",".",".",".",".",".",".",".",".",".",".",".",".",".",".","."],[null,null,13,"b",15,".",15,"r",13,11,".",".",".",".",11,11,"v",13,13,"/",15,13,11,10,".",".",13,10,".",13,10,".",".",11,13,"/",15,15,"/",17,"\\",15,13,15,"r",13,13,"b",15],[null,null,".",".",".",".",".",".",".",".",11,11,"h",13,".",".",".",".",".",".",".",".",".",".",13,11,".",".",13,".",".",13,13,".",".",".",".",".",".",".",".",".",".",".",".",".",".",".","."],[null,null,".",".",".",".",".",".",".",".",".",".",".",".",".",".",".",".",".",".",".",".",".",".",".",".",".",".",".",".",".",".",".",".",".",".",".",".",".",".",".",".",".",".",".",".",".",".","."],[null,null,".",".",".",".",".",".",".",".",".",".",".",".",".",".",".",".",".",".",".",".",".",".",".",".",".",".",".",".",".",".",".",".",".",".",".",".",".",".",".",".",".",".",".",".",".",".","."]],[[".",".",".",".",".",".",".",".",".",".",16,"b",18],[".",".",".",11,14,"h",16,"v",14,16,".",".","."],[13,11,13,".",".",".",".",".",".",".",".",".","."],[".",".",".",".",".",".",".",".",".",".",".",".","."],[".",".",".",".",".",".",".",".",".",".",".",".","."],[".",".",".",".",".",".",".",".",".",".",".",".","."]],[["_","_"],["_","_"],["_","_"],["_","_"],["_","_"],["_","_"]],[[],[],[],[],[],[]]],"numberofstrings":6,"notes":["E","B","G","D","A","E","B"],"capo":0,"stringnotes":["E4","B3","G3","D3","A2","E2"],"comments":["Stave 1:","Stave 2:","Stave 3:","Stave 4:","Stave 5:"],"timing":[["W","W","W","W",null,"W","W",null,"W","W","W","W",null,"W","W",null,"W","W",null,"W","W","W",null,"W","W","W","W","W",null,"W","W","W","W","W","W","W","W","W","W",null,"W","W",null,"W"],[null,null,"W",null,"W","W","W",null,"W","W","W","W",null,"W","W","W",null,"W","W",null,"W","W","W","W","W","W","W","W","W","W","W","W","W","W","W",null,"W","W",null,"W",null,"W","W","W",null,"W","W",null,"W"],["W","W","W","W","W",null,"W",null,"W","W","W",null,"W"],["W","W"],[]],"timingvisible":false,"tabcounter":13,"stave":2,"totalstaves":5,"instrument":"6guitar","selectedtuning":"6_standard","version":"13"}

Member for

6 months 2 weeks
Submitted by Doris Melo on Mon, 2022-01-17 12:28