Harry Styles - Falling

01234567891011121314151617181920212223
E
B
G
D
A
E
B
0 1 2 3 4 5 6 7 8 9 10 11 12 13 14 15 16 17 18 19 20 21 22 23
(/) Slide Up  (\) Slide Down  (h) Hammer On  (p) Pull Off  (b) Bend (r) Release (v) Vibrato

Capo Fret 4

Intro:

E|--0--------0-----------------0--------0-----------------0--------0-----------------0--------0-----------------
B|-----3--3-----3--3--3--1--------3--3-----3--3--3--1--------3--3-----3--3--3--1--------3--3-----3--3--3--1--1--
G|-----------------------------------------------------------------------------------------------------------2--
D|--------------------------------------------------------------------------------------------------------------
A|--3--------------------------0--------------------------------------------------------------------------------
E|--------------------------------------------------------3--------------------------1-----------------------1--

Verse:

E|-----------------------------------------------------------
B|-----------------------------------------------------------
G|--0--0--0--0-----2--2--2--2-----0--0--0--0-----2--2--2--2--
D|--2--2--2--2-----2--2--2--2-----0--0--0--0-----3--3--3--3--
A|--3--------------0-----------------------------------------
E|--------------------------------3--------------1-----------

Chorus:

E|-----------------------------------------------------------------------------------------
B|--1--1--1--1-----1--1--1-----1--1--1--------1--1--1-----1--1--1--------1--1--1--------1--
G|--0--0--0--0-----2--2-----2--2--2-----2-----0--0-----0--0--0-----0-----0--0-----0-----2--
D|-----------------------------------------------------------------------------------------
A|--3-----3--------0-----------0-----------------------------------------------------------
E|--------------------------------------------3-----------3--------------0--------------1--

Bridge:

E|-----------------------------------------
B|--1-----1-----1-----1-----0-----0-----1--
G|--2-----0-----2-----0-----0-----0-----2--
D|-----------------------------------------
A|--0-----3-----0--------------------------
E|--------------------3-----0-----3-----1--

							http://www.guitartabcreator.com
Chords

Tab Notes
https://tabs.ultimate-guitar.com/tab/harry-styles/falling-chords-3124001 https://tabs.ultimate-guitar.com/tab/harry-styles/falling-chords-2926901 Intro: C Am G F Verse: C Am G F Chorus: C Am G Em F Bridge: Am C Am G Em G F
Instruments
{"strings":[[[0,"_","_",0,"_","_","_","_","_",0,"_","_",0,"_","_","_","_","_",0,"_","_",0,"_","_","_","_","_",0,"_","_",0,"_","_","_","_","_"],[".",3,3,"_",3,3,3,1,"_","_",3,3,"_",3,3,3,1,"_","_",3,3,"_",3,3,3,1,"_","_",3,3,"_",3,3,3,1,1],[".","_","_","_","_","_","_","_","_","_","_","_","_","_","_","_","_","_","_","_","_","_","_","_","_","_","_","_","_","_","_","_","_","_","_",2],[".","_","_","_","_","_","_","_","_","_","_","_","_","_","_","_","_","_","_","_","_","_","_","_","_","_","_","_","_","_","_","_","_","_","_","_"],[3,"_","_","_","_","_","_","_","_",0,"_","_","_","_","_","_","_","_","_","_","_","_","_","_","_","_","_","_","_","_","_","_","_","_","_","_"],[".","_","_","_","_","_","_","_","_","_","_","_","_","_","_","_","_","_",3,"_","_","_","_","_","_","_","_",1,"_","_","_","_","_","_","_",1]],[[".","_","_","_","_","_","_","_","_","_","_","_","_","_","_","_","_","_","_"],[".","_","_","_","_","_","_","_","_","_","_","_","_","_","_","_","_","_","_"],[0,0,0,0,"_",2,2,2,2,"_",0,0,0,0,"_",2,2,2,2],[2,2,2,2,"_",2,2,2,2,"_",0,0,0,0,"_",3,3,3,3],[3,"_","_","_","_",0,"_","_","_","_","_","_","_","_","_","_","_","_","_"],[".","_","_","_","_","_","_","_","_","_",3,"_","_","_","_",1,"_","_","_"]],[[".","_","_","_","_","_","_","_","_","_","_","_","_","_","_","_","_","_","_","_","_","_","_","_","_","_","_","_","_"],[1,1,1,1,"_",1,1,1,"_",1,1,1,"_","_",1,1,1,"_",1,1,1,"_","_",1,1,1,"_","_",1],[0,0,0,0,"_",2,2,"_",2,2,2,"_",2,"_",0,0,"_",0,0,0,"_",0,"_",0,0,"_",0,"_",2],[".","_","_","_","_","_","_","_","_","_","_","_","_","_","_","_","_","_","_","_","_","_","_","_","_","_","_","_","_"],[3,"_",3,"_","_",0,"_","_","_",0,"_","_","_","_","_","_","_","_","_","_","_","_","_","_","_","_","_","_","_"],[".","_","_","_","_","_","_","_","_","_","_","_","_","_",3,"_","_","_",3,"_","_","_","_",0,"_","_","_","_",1]],[[".","_","_","_","_","_","_","_","_","_","_","_","_"],[1,"_",1,"_",1,"_",1,"_",0,"_",0,"_",1],[2,"_",0,"_",2,"_",0,"_",0,"_",0,"_",2],[".","_","_","_","_","_","_","_","_","_","_","_","_"],[0,"_",3,"_",0,"_","_","_","_","_","_","_","_"],[".","_","_","_","_","_",3,"_",0,"_",3,"_",1]]],"numberofstrings":6,"notes":["E","B","G","D","A","E","B"],"capo":"4","stringnotes":["E4","B3","G3","D3","A2","E2"],"comments":["Intro:","Verse:","Chorus:","Bridge:"],"timing":[["W","W","W","W","W","W","W","W","W","W","W","W","W","W","W","W","W","W","W","W","W","W","W","W","W","W","W","W","W","W","W","W","W","W"],["W","W","W","W","W","W","W","W","W","W","W","W","W","W","W","W","W"],["W","W","W","W","W","W","W","W","W","W","W","W","W","W","W","W","W","W","W","W","W","W","W","W","W","W","W","W","W","W"],["W","W","W","W","W","W","W","W","W","W","W","W","W","W","W","W","W","W","W","W","W","W","W","W","W","W","W","W","W",null,null,null,"W"]],"timingvisible":false,"tabcounter":13,"stave":3,"totalstaves":4,"instrument":"6guitar","selectedtuning":"6_standard","version":"13"}

Member for

4 years 7 months
Submitted by DHBui96 on Thu, 2022-01-13 01:07