Lo-Fi Boogie

01234567891011121314151617181920212223
E
B
G
D
A
E
B
0 1 2 3 4 5 6 7 8 9 10 11 12 13 14 15 16 17 18 19 20 21 22 23
(/) Slide Up  (\) Slide Down  (h) Hammer On  (p) Pull Off  (b) Bend (r) Release (v) Vibrato

Intro

E|--------------------------|--------------------------5-----------|--------------------------5-----------|--
B|-----3-----0-----1-----1--|-----1-----5--------5-----------5-----|-----1-----5--------5-----------5-----|--
G|-----5--------------------|--------------7-----------------------|--------------7-----------------------|--
D|-----2--------0--------2--|-----2--------6--------5-----------5--|-----2--------6--------5-----------5--|--
A|--5--------------3--------|--3-----------------------------------|--3-----------------------------------|--
E|--------3-----------3-----|--------0--------5-----------5--------|--------0--------5-----------5--------|--



E|--------------------------5-----------|--------------------------3-----------|--
B|-----1-----5--------5-----------5-----|-----3-----3--------0-----------0-----|--
G|--------------7-----------------------|-----5--------------------------------|--
D|-----2--------6--------5-----------5--|-----4--------0--------0-----------0--|--
A|--3-----------------------------------|--5-----------------------------------|--
E|--------0--------5-----------5--------|--------5--------3-----------3--------|--

Verse

E|--------------------------5-----------|--------------------------5-----------|--------------------------5-----------|--
B|-----1-----5--------5-----------5-----|-----1-----5--------5-----------5-----|-----1-----5--------5-----------5-----|--
G|--------------7-----------------------|--------------7-----------------------|--------------7-----------------------|--
D|-----2--------6--------5-----------5--|-----2--------6--------5-----------5--|-----2--------6--------5-----------5--|--
A|--3-----------------------------------|--3-----------------------------------|--3-----------------------------------|--
E|--------0--------5-----------5--------|--------0--------5-----------5--------|--------0--------5-----------5--------|--



E|--------------------------3-----------|--------------------------5-----------|--------------------------5-----------|--
B|-----3-----3--------0-----------0-----|-----1-----5--------5-----------5-----|-----1-----5--------5-----------5-----|--
G|-----5--------------------------------|--------------7-----------------------|--------------7-----------------------|--
D|-----4--------0--------0-----------0--|-----2--------6--------5-----------5--|-----2--------6--------5-----------5--|--
A|--5-----------------------------------|--3-----------------------------------|--3-----------------------------------|--
E|-----------------3-----------3--------|--------0--------5-----------5--------|--------0--------5-----------5--------|--



E|--------------------------5-----------|--------------------------3-----------|--
B|-----1-----5--------5-----------5-----|-----3-----3--------0-----------0-----|--
G|--------------7-----------------------|-----5--------------------------------|--
D|-----2--------6--------5-----------5--|-----4--------0--------0-----------0--|--
A|--3-----------------------------------|--5-----------------------------------|--
E|--------0--------5-----------5--------|--------5--------3-----------3--------|--

Chorus

E|--------------------------0--------|-----1--------------------0--------|--------------------------5-----------|--
B|-----1-----1--------1--------1-----|-----------1--------2--------2-----|-----1-----5--------5-----------5-----|--
G|-----------------------3--------3--|-----------------------0--------0--|--------------7-----------------------|--
D|-----2--------2--------------------|-----3--------2--------------------|-----2--------6--------5-----------5--|--
A|--3--------------3-----------------|-----------------0-----------------|--3-----------------------------------|--
E|--------3--------------------------|--1-----1--------------------------|--------0--------5-----------5--------|--



E|--------------------------|--
B|-----3-----0-----1-----1--|--
G|-----5--------------------|--
D|-----2--------0--------2--|--
A|--5--------------3--------|--
E|--------3-----------3-----|--

Bridge/Outro

E|--------------------------0--------|-----5--------------------5-----|--------------------------0--------|--
B|-----5--------------5--------5-----|-----------5-----7--7-----------|-----5--------------5--------5-----|--
G|-----7-----0-----------7--------7--|--------------------------------|-----7-----0-----------7--------7--|--
D|-----6--------0--------6--------6--|-----5--------5--------5-----5--|-----6--------0--------6--------6--|--
A|--7--------------------------------|--------------------------------|--7--------------------------------|--
E|--------7--------0-----------------|--5-----5--------5--------5-----|--------7--------0-----------------|--



E|--------------------------3-----------|--------------------------0--------|-----1--------------------0--------|--
B|-----3-----3--------0-----------0-----|-----1-----1--------1--------1-----|-----------1--------2--------2-----|--
G|-----5--------------------------------|-----------------------3--------3--|-----------------------0--------0--|--
D|-----4--------0--------0-----------0--|-----2--------2--------------------|-----3--------2--------------------|--
A|--5-----------------------------------|--3--------------3-----------------|-----------------0-----------------|--
E|--------5--------3-----------3--------|--------3--------------------------|--1-----1--------------------------|--



E|--------------------------5-----------|--------------------------|--------------------------0--------|--
B|-----1-----5--------5-----------5-----|-----3-----0-----1-----1--|-----5--------------5--------5-----|--
G|--------------7-----------------------|-----5--------------------|-----7-----0-----------7--------7--|--
D|-----2--------6--------5-----------5--|-----2--------0--------2--|-----6--------0--------6--------6--|--
A|--3-----------------------------------|--5--------------3--------|--7--------------------------------|--
E|--------0--------5-----------5--------|--------3-----------3-----|--------7--------0-----------------|--



E|-----5--------------------5-----|--------------------------0--------|--------------------------3-----------|--
B|-----------5-----7--7-----------|-----5--------------5--------5-----|-----3-----3--------0-----------0-----|--
G|--------------------------------|-----7-----0-----------7--------7--|-----5--------------------------------|--
D|-----5--------5--------5-----5--|-----6--------0--------6--------6--|-----4--------0--------0-----------0--|--
A|--------------------------------|--7--------------------------------|--5-----------------------------------|--
E|--5-----5--------5--------5-----|--------7--------0-----------------|--------5--------3-----------3--------|--



E|--------------------------0--------|-----1--------------------0--------|--------------------------5-----------|--
B|-----1-----1--------1--------1-----|-----------1--------2--------2-----|-----1-----5--------5-----------5-----|--
G|-----------------------3--------3--|-----------------------0--------0--|--------------7-----------------------|--
D|-----2--------2--------------------|-----3--------2--------------------|-----2--------6--------5-----------5--|--
A|--3--------------3-----------------|-----------------0-----------------|--3-----------------------------------|--
E|--------3--------------------------|--1-----1--------------------------|--------0--------5-----------5--------|--



E|--------------------------|--------------------------|-----------------------0--|--
B|-----3-----0-----1-----1--|-----3-----0-----1-----1--|-----3-----0-----1-----1--|--
G|-----5--------------------|-----5--------------------|-----5-----------------3--|--
D|-----2--------0--------2--|-----2--------0--------2--|-----2--------0--------2--|--
A|--5--------------3--------|--5--------------3--------|--5--------------3-----3--|--
E|--------3-----------3-----|--------3-----------3-----|--------3-----------3-----|--

							http://www.guitartabcreator.com
Chords

Instruments
{"strings":[[[".","_","_","_","_","_","_","_","|","_","_","_","_","_","_","_","_",5,"_","_","_","|","_","_","_","_","_","_","_","_",5,"_","_","_","|"],[".",3,"_",0,"_",1,"_",1,"|","_",1,"_",5,"_","_",5,"_","_","_",5,"_","|","_",1,"_",5,"_","_",5,"_","_","_",5,"_","|"],[".",5,"_","_","_","_","_","_","|","_","_","_","_",7,"_","_","_","_","_","_","_","|","_","_","_","_",7,"_","_","_","_","_","_","_","|"],[".",2,"_","_",0,"_","_",2,"|","_",2,"_","_",6,"_","_",5,"_","_","_",5,"|","_",2,"_","_",6,"_","_",5,"_","_","_",5,"|"],[5,"_","_","_","_",3,"_","_","|",3,"_","_","_","_","_","_","_","_","_","_","_","|",3,"_","_","_","_","_","_","_","_","_","_","_","|"],[".","_",3,"_","_","_",3,"_","|","_","_",0,"_","_",5,"_","_","_",5,"_","_","|","_","_",0,"_","_",5,"_","_","_",5,"_","_","|"]],[[".","_","_","_","_","_","_","_",5,"_","_","_","|","_","_","_","_","_","_","_","_",3,"_","_","_","|"],[".",1,"_",5,"_","_",5,"_","_","_",5,"_","|","_",3,"_",3,"_","_",0,"_","_","_",0,"_","|"],[".","_","_","_",7,"_","_","_","_","_","_","_","|","_",5,"_","_","_","_","_","_","_","_","_","_","|"],[".",2,"_","_",6,"_","_",5,"_","_","_",5,"|","_",4,"_","_",0,"_","_",0,"_","_","_",0,"|"],[3,"_","_","_","_","_","_","_","_","_","_","_","|",5,"_","_","_","_","_","_","_","_","_","_","_","|"],[".","_",0,"_","_",5,"_","_","_",5,"_","_","|","_","_",5,"_","_",3,"_","_","_",3,"_","_","|"]],[["_","_","_","_","_","_","_","_",5,"_","_","_","|","_","_","_","_","_","_","_","_",5,"_","_","_","|","_","_","_","_","_","_","_","_",5,"_","_","_","|"],["_",1,"_",5,"_","_",5,"_","_","_",5,"_","|","_",1,"_",5,"_","_",5,"_","_","_",5,"_","|","_",1,"_",5,"_","_",5,"_","_","_",5,"_","|"],["_","_","_","_",7,"_","_","_","_","_","_","_","|","_","_","_","_",7,"_","_","_","_","_","_","_","|","_","_","_","_",7,"_","_","_","_","_","_","_","|"],["_",2,"_","_",6,"_","_",5,"_","_","_",5,"|","_",2,"_","_",6,"_","_",5,"_","_","_",5,"|","_",2,"_","_",6,"_","_",5,"_","_","_",5,"|"],[3,"_","_","_","_","_","_","_","_","_","_","_","|",3,"_","_","_","_","_","_","_","_","_","_","_","|",3,"_","_","_","_","_","_","_","_","_","_","_","|"],["_","_",0,"_","_",5,"_","_","_",5,"_","_","|","_","_",0,"_","_",5,"_","_","_",5,"_","_","|","_","_",0,"_","_",5,"_","_","_",5,"_","_","|"]],[["_","_","_","_","_","_","_","_",3,"_","_","_","|","_","_","_","_","_","_","_","_",5,"_","_","_","|","_","_","_","_","_","_","_","_",5,"_","_","_","|"],["_",3,"_",3,"_","_",0,"_","_","_",0,"_","|","_",1,"_",5,"_","_",5,"_","_","_",5,"_","|","_",1,"_",5,"_","_",5,"_","_","_",5,"_","|"],["_",5,"_","_","_","_","_","_","_","_","_","_","|","_","_","_","_",7,"_","_","_","_","_","_","_","|","_","_","_","_",7,"_","_","_","_","_","_","_","|"],["_",4,"_","_",0,"_","_",0,"_","_","_",0,"|","_",2,"_","_",6,"_","_",5,"_","_","_",5,"|","_",2,"_","_",6,"_","_",5,"_","_","_",5,"|"],[5,"_","_","_","_","_","_","_","_","_","_","_","|",3,"_","_","_","_","_","_","_","_","_","_","_","|",3,"_","_","_","_","_","_","_","_","_","_","_","|"],["_","_","_","_","_",3,"_","_","_",3,"_","_","|","_","_",0,"_","_",5,"_","_","_",5,"_","_","|","_","_",0,"_","_",5,"_","_","_",5,"_","_","|"]],[["_","_","_","_","_","_","_","_",5,"_","_","_","|","_","_","_","_","_","_","_","_",3,"_","_","_","|"],["_",1,"_",5,"_","_",5,"_","_","_",5,"_","|","_",3,"_",3,"_","_",0,"_","_","_",0,"_","|"],["_","_","_","_",7,"_","_","_","_","_","_","_","|","_",5,"_","_","_","_","_","_","_","_","_","_","|"],["_",2,"_","_",6,"_","_",5,"_","_","_",5,"|","_",4,"_","_",0,"_","_",0,"_","_","_",0,"|"],[3,"_","_","_","_","_","_","_","_","_","_","_","|",5,"_","_","_","_","_","_","_","_","_","_","_","|"],["_","_",0,"_","_",5,"_","_","_",5,"_","_","|","_","_",5,"_","_",3,"_","_","_",3,"_","_","|"]],[[".","_","_","_","_","_","_","_",0,"_","_","|","_",1,"_","_","_","_","_","_",0,"_","_","|","_","_","_","_","_","_","_","_",5,"_","_","_","|"],[".",1,"_",1,"_","_",1,"_","_",1,"_","|","_","_","_",1,"_","_",2,"_","_",2,"_","|","_",1,"_",5,"_","_",5,"_","_","_",5,"_","|"],[".","_","_","_","_","_","_",3,"_","_",3,"|","_","_","_","_","_","_","_",0,"_","_",0,"|","_","_","_","_",7,"_","_","_","_","_","_","_","|"],[".",2,"_","_",2,"_","_","_","_","_","_","|","_",3,"_","_",2,"_","_","_","_","_","_","|","_",2,"_","_",6,"_","_",5,"_","_","_",5,"|"],[3,"_","_","_","_",3,"_","_","_","_","_","|","_","_","_","_","_",0,"_","_","_","_","_","|",3,"_","_","_","_","_","_","_","_","_","_","_","|"],[".","_",3,"_","_","_","_","_","_","_","_","|",1,"_",1,"_","_","_","_","_","_","_","_","|","_","_",0,"_","_",5,"_","_","_",5,"_","_","|"]],[[".","_","_","_","_","_","_","_","|"],[".",3,"_",0,"_",1,"_",1,"|"],[".",5,"_","_","_","_","_","_","|"],[".",2,"_","_",0,"_","_",2,"|"],[5,"_","_","_","_",3,"_","_","|"],[".","_",3,"_","_","_",3,"_","|"]],[[".","_","_","_","_","_","_","_",0,"_","_","|","_",5,"_","_","_","_","_","_",5,"_","|",".","_","_","_","_","_","_","_",0,"_","_","|"],[".",5,"_","_","_","_",5,"_","_",5,"_","|","_","_","_",5,"_",7,7,"_","_","_","|",".",5,"_","_","_","_",5,"_","_",5,"_","|"],[".",7,"_",0,"_","_","_",7,"_","_",7,"|","_","_","_","_","_","_","_","_","_","_","|",".",7,"_",0,"_","_","_",7,"_","_",7,"|"],[".",6,"_","_",0,"_","_",6,"_","_",6,"|","_",5,"_","_",5,"_","_",5,"_",5,"|",".",6,"_","_",0,"_","_",6,"_","_",6,"|"],[7,"_","_","_","_","_","_","_","_","_","_","|","_","_","_","_","_","_","_","_","_","_","|",7,"_","_","_","_","_","_","_","_","_","_","|"],["_","_",7,"_","_",0,"_","_","_","_","_","|",5,"_",5,"_","_",5,"_","_",5,"_","|","_","_",7,"_","_",0,"_","_","_","_","_","|"]],[["_","_","_","_","_","_","_","_",3,"_","_","_","|",".","_","_","_","_","_","_","_",0,"_","_","|","_",1,"_","_","_","_","_","_",0,"_","_","|"],["_",3,"_",3,"_","_",0,"_","_","_",0,"_","|",".",1,"_",1,"_","_",1,"_","_",1,"_","|","_","_","_",1,"_","_",2,"_","_",2,"_","|"],["_",5,"_","_","_","_","_","_","_","_","_","_","|",".","_","_","_","_","_","_",3,"_","_",3,"|","_","_","_","_","_","_","_",0,"_","_",0,"|"],["_",4,"_","_",0,"_","_",0,"_","_","_",0,"|",".",2,"_","_",2,"_","_","_","_","_","_","|","_",3,"_","_",2,"_","_","_","_","_","_","|"],[5,"_","_","_","_","_","_","_","_","_","_","_","|",3,"_","_","_","_",3,"_","_","_","_","_","|","_","_","_","_","_",0,"_","_","_","_","_","|"],["_","_",5,"_","_",3,"_","_","_",3,"_","_","|",".","_",3,"_","_","_","_","_","_","_","_","|",1,"_",1,"_","_","_","_","_","_","_","_","|"]],[["_","_","_","_","_","_","_","_",5,"_","_","_","|",".","_","_","_","_","_","_","_","|",".","_","_","_","_","_","_","_",0,"_","_","|"],["_",1,"_",5,"_","_",5,"_","_","_",5,"_","|",".",3,"_",0,"_",1,"_",1,"|",".",5,"_","_","_","_",5,"_","_",5,"_","|"],["_","_","_","_",7,"_","_","_","_","_","_","_","|",".",5,"_","_","_","_","_","_","|",".",7,"_",0,"_","_","_",7,"_","_",7,"|"],["_",2,"_","_",6,"_","_",5,"_","_","_",5,"|",".",2,"_","_",0,"_","_",2,"|",".",6,"_","_",0,"_","_",6,"_","_",6,"|"],[3,"_","_","_","_","_","_","_","_","_","_","_","|",5,"_","_","_","_",3,"_","_","|",7,"_","_","_","_","_","_","_","_","_","_","|"],["_","_",0,"_","_",5,"_","_","_",5,"_","_","|",".","_",3,"_","_","_",3,"_","|","_","_",7,"_","_",0,"_","_","_","_","_","|"]],[["_",5,"_","_","_","_","_","_",5,"_","|",".","_","_","_","_","_","_","_",0,"_","_","|","_","_","_","_","_","_","_","_",3,"_","_","_","|"],["_","_","_",5,"_",7,7,"_","_","_","|",".",5,"_","_","_","_",5,"_","_",5,"_","|","_",3,"_",3,"_","_",0,"_","_","_",0,"_","|"],["_","_","_","_","_","_","_","_","_","_","|",".",7,"_",0,"_","_","_",7,"_","_",7,"|","_",5,"_","_","_","_","_","_","_","_","_","_","|"],["_",5,"_","_",5,"_","_",5,"_",5,"|",".",6,"_","_",0,"_","_",6,"_","_",6,"|","_",4,"_","_",0,"_","_",0,"_","_","_",0,"|"],["_","_","_","_","_","_","_","_","_","_","|",7,"_","_","_","_","_","_","_","_","_","_","|",5,"_","_","_","_","_","_","_","_","_","_","_","|"],[5,"_",5,"_","_",5,"_","_",5,"_","|","_","_",7,"_","_",0,"_","_","_","_","_","|","_","_",5,"_","_",3,"_","_","_",3,"_","_","|"]],[[".","_","_","_","_","_","_","_",0,"_","_","|","_",1,"_","_","_","_","_","_",0,"_","_","|","_","_","_","_","_","_","_","_",5,"_","_","_","|"],[".",1,"_",1,"_","_",1,"_","_",1,"_","|","_","_","_",1,"_","_",2,"_","_",2,"_","|","_",1,"_",5,"_","_",5,"_","_","_",5,"_","|"],[".","_","_","_","_","_","_",3,"_","_",3,"|","_","_","_","_","_","_","_",0,"_","_",0,"|","_","_","_","_",7,"_","_","_","_","_","_","_","|"],[".",2,"_","_",2,"_","_","_","_","_","_","|","_",3,"_","_",2,"_","_","_","_","_","_","|","_",2,"_","_",6,"_","_",5,"_","_","_",5,"|"],[3,"_","_","_","_",3,"_","_","_","_","_","|","_","_","_","_","_",0,"_","_","_","_","_","|",3,"_","_","_","_","_","_","_","_","_","_","_","|"],[".","_",3,"_","_","_","_","_","_","_","_","|",1,"_",1,"_","_","_","_","_","_","_","_","|","_","_",0,"_","_",5,"_","_","_",5,"_","_","|"]],[[".","_","_","_","_","_","_","_","|",".","_","_","_","_","_","_","_","|",".","_","_","_","_","_","_",0,"|"],[".",3,"_",0,"_",1,"_",1,"|",".",3,"_",0,"_",1,"_",1,"|",".",3,"_",0,"_",1,"_",1,"|"],[".",5,"_","_","_","_","_","_","|",".",5,"_","_","_","_","_","_","|",".",5,"_","_","_","_","_",3,"|"],[".",2,"_","_",0,"_","_",2,"|",".",2,"_","_",0,"_","_",2,"|",".",2,"_","_",0,"_","_",2,"|"],[5,"_","_","_","_",3,"_","_","|",5,"_","_","_","_",3,"_","_","|",5,"_","_","_","_",3,"_",3,"|"],[".","_",3,"_","_","_",3,"_","|",".","_",3,"_","_","_",3,"_","|",".","_",3,"_","_","_",3,"_","|"]]],"numberofstrings":6,"notes":["E","B","G","D","A","E","B"],"capo":0,"stringnotes":["E4","B3","G3","D3","A2","E2"],"comments":["Intro","","Verse","","","Chorus","","Bridge/Outro","","","","",""],"timing":[["W","W","W","W","W","W","W","W","W","W","W","W","W","W","W","W","W","W","W","W","W","W","W"],["W","W",null,null,null,null,null,null,null,null,null,null,null,"W","W","W","W","W","W","W","W","W","W","W","W","W",null,"W"],[null,null,null,null,null,null,null,null,null,null,null,null,null,"W",null,null,null,null,null,null,null,null,null,null,null,null,null,null,null,null,null,null,null,null,null,null,null,null,null],[null,"W","W","W","W",null,null,null,null,null,null,null,null,"W"],[null,"W",null,null,null,null,null,null,null,null,null,null,null,null,null,null,null,null,null,null,null,null,null,null,null,null,"W"],["W","W","W","W","W","W","W","W","W","W","W","W","W","W","W","W","W","W","W","W","W","W","W","W","W"],["W","W"],["W","W","W","W","W","W","W","W","W","W","W","W","W","W","W","W","W","W","W","W","W","W","W","W",null,"W",null,"W",null,null,"W","W","W","W","W"],[null,null,null,null,null,null,null,null,null,null,null,null,null,"W"],[null,null,null,null,null,null,null,null,null,null,null,null,null,"W",null,null,null,null,null,null,null,null,null,null,null,null,null,null,null,null,null,null,null,null,"W"],[null,null,null,null,null,null,null,null,null,null,null,null,null,null,null,null,null,null,null,null,null,null,null,"W",null,null,null,null,null,null,null,null,null,null,null,null,"W"],[],[null,null,null,null,null,null,null,null,null,"W",null,null,null,null,null,null,null,"W","W",null,null,null,null,null,null,null,null,"W"]],"timingvisible":false,"tabcounter":27,"stave":12,"totalstaves":13,"instrument":"6guitar","selectedtuning":"6_standard","version":"13"}

Member for

1 week 4 days
Submitted by ccpackard on Thu, 2022-01-13 13:51