Yesterday 2

01234567891011121314151617181920212223
E
B
G
D
A
E
B
0 1 2 3 4 5 6 7 8 9 10 11 12 13 14 15 16 17 18 19 20 21 22 23
(/) Slide Up  (\) Slide Down  (h) Hammer On  (p) Pull Off  (b) Bend (r) Release (v) Vibrato

Stave 1:

E|-----3--3--3-----3--3--3--|-----3--3--3-----3--3-----|---------------------------|-------------------2--3--|--
B|-----3--3--3-----3--3--3--|-----3--3--3-----3--3-----|---------------------------|--------0--2--4/5--------|--
G|-----0--0--0-----0--0--0--|-----0--0--0-----0--0-----|--0h2p0--0-----------0-----|--------2----------------|--
D|--------------------------|--------------------------|--0---------------0--------|--------2-----4----------|--
A|--------------------------|--------------------------|---------------------------|--------------2----------|--
E|--3-----------3-----------|--3-----------3--------3--|---------------3--------0--|--2----------------------|--

Stave 2:

E|--2---p0--0--------------|--------0--0------------------|--------------------------|--------------------------|--
B|--0----------------------|--------1-----3---p1---p0-----|--1-----0--0--------------|--------0-----------------|--
G|----------------0-----0--|--------0------------------2--|--0-----0--0--------2-----|--0-----------2-----------|--
D|-------------2-----0-----|--------------0---------------|-----0-----------0--------|-----2--------------2-----|--
A|-------------------------|--3---------------------------|--------------------------|--------------0-----------|--
E|--0----------------------|---------------------------2--|--3-----------3-----2-----|--0-----------------------|--

Stave 3:

E|--------------
B|--------0--0--
G|--0-----0--0--
D|--------------
A|--3-----------
E|--------3--3--

							http://www.guitartabcreator.com
Chords

Instruments
{"strings":[[[".",3,3,3,".",3,3,3,"|",".",3,3,3,".",3,3,".","|",".",".",".",".",".",".","_",".",".",".",".","|",".","_",".",".",".",".",".",2,3,"|"],[".",3,3,3,".",3,3,3,"|",".",3,3,3,".",3,3,".","|",".",".",".",".",".",".","_",".",".",".",".","|",".","_",0,2,4,"/",5,".",".","|"],[".",0,0,0,".",0,0,0,"|",".",0,0,0,".",0,0,".","|",0,"h",2,"p",0,0,"_",".",".",0,".","|",".","_",2,".",".",".",".",".",".","|"],[".",".",".",".",".",".",".",".","|",".",".",".",".",".",".",".",".","|",0,".",".",".",".",".","_",".",0,".",".","|",".","_",2,".",4,".",".",".",".","|"],[".",".",".",".",".",".",".",".","|",".",".",".",".",".",".",".",".","|",".",".",".",".",".",".","_",".",".",".",".","|",".","_",".",".",2,".",".",".",".","|"],[3,".",".",".",3,".",".",".","|",3,".",".",".",3,".",".",3,"|",".",".",".",".",".",".","_",3,".",".",0,"|",2,"_",".",".",".",".",".",".",".","|"]],[[2,"_","p",0,0,".",".",".",".","|",".","_",0,0,".","_",".",".","_",".",".",".","|",".",".",".",".",".",".",".","_","|",".",".",".","_",".","_",".","_","|"],[0,"_",".",".",".",".",".",".",".","|",".","_",1,".",3,"_","p",1,"_","p",0,".","|",1,".",0,0,".",".",".","_","|",".",".",0,"_",".","_",".","_","|"],[".","_",".",".",".",".",0,".",0,"|",".","_",0,".",".","_",".",".","_",".",".",2,"|",0,".",0,0,".",".",2,"_","|",0,".",".","_",2,"_",".","_","|"],[".","_",".",".",".",2,".",0,".","|",".","_",".",".",0,"_",".",".","_",".",".",".","|",".",0,".",".",".",0,".","_","|",".",2,".","_",".","_",2,"_","|"],[".","_",".",".",".",".",".",".",".","|",3,"_",".",".",".","_",".",".","_",".",".",".","|",".",".",".",".",".",".",".","_","|",".",".",".","_",0,"_",".","_","|"],[0,"_",".",".",".",".",".",".",".","|",".","_",".",".",".","_",".",".","_",".",".",2,"|",3,".",".",".",3,".",2,"_","|",0,".",".","_",".","_",".","_","|"]],[[".","_",".","."],[".","_",0,0],[0,"_",0,0],[".","_",".","."],[3,"_",".","."],[".","_",3,3]]],"numberofstrings":6,"notes":["E","B","G","D","A","E","B"],"capo":0,"stringnotes":["E4","B3","G3","D3","A2","E2"],"comments":["Stave 1:","Stave 2:","Stave 3:"],"timing":[["W","W","W","W","W","W","W","W",null,"W","W","W","W","W","W","W","W","W","W",null,"W",null,"W","W","W","W","W","W","W",null,"W","W","W","W","W",null,"W","W","W"],["W","W",null,"W","W","W","W","W","W",null,"W","W","W","W","W","W",null,"W","W",null,"W","W",null,"W","W","W","W","W","W","W","W",null,"W","W","W","W","W","W","W","W"],["W","W","W","W"]],"timingvisible":false,"tabcounter":41,"stave":1,"totalstaves":3,"instrument":"6guitar","selectedtuning":"6_standard","version":"13"}

Member for

9 months 1 week
Submitted by bf on Thu, 2022-01-13 11:16