karz theme

01234567891011121314151617181920212223
E
B
G
D
A
E
B
0 1 2 3 4 5 6 7 8 9 10 11 12 13 14 15 16 17 18 19 20 21 22 23
(/) Slide Up  (\) Slide Down  (h) Hammer On  (p) Pull Off  (b) Bend (r) Release (v) Vibrato

Stave 1:

E|-----------------|--------------|-----------------|--------------------|-------------------|--
B|-----3-----3--4--|--3-----3--4--|--3-----3--4-----|--------------3-----|--------3--1/3-----|--
G|--------5--------|-----5--------|-----5--------5--|--5--5--2--5-----4--|--4--5----------5--|--
D|-----------------|--------------|-----------------|--------------------|-------------------|--
A|-----------------|--------------|-----------------|--------------------|-------------------|--
E|-----------------|--------------|-----------------|--------------------|-------------------|--

Stave 2:

E|--------------------------------|--8--11------8-------------------|--------------|--
B|---------------8--11--11--8--8--|---------11-----8--11---------8--|--8--7--6-----|--
G|--8--8--8--10-------------------|-----------------------10--------|-----------8--|--
D|--------------------------------|---------------------------------|--------------|--
A|--------------------------------|---------------------------------|--------------|--
E|--------------------------------|---------------------------------|--------------|--

Stave 3:

E|--11--10--11--10--8--10--8--10--11--10--8--11--10--8--10--8--|--
B|-------------------------------------------------------------|--
G|-------------------------------------------------------------|--
D|-------------------------------------------------------------|--
A|-------------------------------------------------------------|--
E|-------------------------------------------------------------|--

Stave 4:

E|--10--8--10--8------8------8--10--8------10--8------10--8-------------
B|----------------11-----11------------11---------11---------11--9--11--
G|----------------------------------------------------------------------
D|----------------------------------------------------------------------
A|----------------------------------------------------------------------
E|----------------------------------------------------------------------

Stave 5:

E|--8------8--------------------8---------8---------------
B|-----11-----11--9--11--9--11-----11--9-----11--9--8--9--
G|--------------------------------------------------------
D|--------------------------------------------------------
A|--------------------------------------------------------
E|--------------------------------------------------------

Stave 6:

E|----------------------------------------------
B|--8--8--8--8--8--8--8/9------8--11--9--8------
G|-------------------------10---------------10--
D|----------------------------------------------
A|----------------------------------------------
E|----------------------------------------------

							http://www.guitartabcreator.com
Chords

Instruments
{"strings":[[["_",".",".",".",".","|",".",".",".",".","|",".",".",".",".",".","|",".",".",".",".",".",".","|",".",".",".",".",".",".",".","|"],["_",3,".",3,4,"|",3,".",3,4,"|",3,".",3,4,".","|",".",".",".",".",3,".","|",".",".",3,1,"/",3,".","|"],["_",".",5,".",".","|",".",5,".",".","|",".",5,".",".",5,"|",5,5,2,5,".",4,"|",4,5,".",".",".",".",5,"|"],["_",".",".",".",".","|",".",".",".",".","|",".",".",".",".",".","|",".",".",".",".",".",".","|",".",".",".",".",".",".",".","|"],["_",".",".",".",".","|",".",".",".",".","|",".",".",".",".",".","|",".",".",".",".",".",".","|",".",".",".",".",".",".",".","|"],["_",".",".",".",".","|",".",".",".",".","|",".",".",".",".",".","|",".",".",".",".",".",".","|",".",".",".",".",".",".",".","|"]],[[".",".",".",".",".",".",".",".",".","|",8,11,".",8,".",".",".","_",".","|",".",".",".",".","|"],[".",".",".",".",8,11,11,8,8,"|",".",".",11,".",8,11,".","_",8,"|",8,7,6,".","|"],[8,8,8,10,".",".",".",".",".","|",".",".",".",".",".",".",10,"_",".","|",".",".",".",8,"|"],[".",".",".",".",".",".",".",".",".","|",".",".",".",".",".",".",".","_",".","|",".",".",".",".","|"],[".",".",".",".",".",".",".",".",".","|",".",".",".",".",".",".",".","_",".","|",".",".",".",".","|"],[".",".",".",".",".",".",".",".",".","|",".",".",".",".",".",".",".","_",".","|",".",".",".",".","|"]],[[11,10,11,10,8,10,8,10,11,10,8,11,10,8,10,8,"|"],[".",".",".",".",".",".",".",".",".",".",".",".",".",".",".",".","|"],[".",".",".",".",".",".",".",".",".",".",".",".",".",".",".",".","|"],[".",".",".",".",".",".",".",".",".",".",".",".",".",".",".",".","|"],[".",".",".",".",".",".",".",".",".",".",".",".",".",".",".",".","|"],[".",".",".",".",".",".",".",".",".",".",".",".",".",".",".",".","|"]],[[10,8,10,8,".",8,".",8,10,8,".",10,8,".",10,8,".",".","."],[".",".",".",".",11,".",11,".",".",".",11,".",".",11,".",".",11,9,11],[".",".",".",".",".",".",".",".",".",".",".",".",".",".",".",".",".",".","."],[".",".",".",".",".",".",".",".",".",".",".",".",".",".",".",".",".",".","."],[".",".",".",".",".",".",".",".",".",".",".",".",".",".",".",".",".",".","."],[".",".",".",".",".",".",".",".",".",".",".",".",".",".",".",".",".",".","."]],[[8,".",8,".",".",".",".",".",8,".",".",8,".",".",".","."],[".",11,".",11,9,11,9,11,".",11,9,".",11,9,8,9],[".",".",".",".",".",".",".",".",".",".",".",".",".",".",".","."],[".",".",".",".",".",".",".",".",".",".",".",".",".",".",".","."],[".",".",".",".",".",".",".",".",".",".",".",".",".",".",".","."],[".",".",".",".",".",".",".",".",".",".",".",".",".",".",".","."]],[[".",".",".",".",".",".",".",".",".",".",".",".",".",".","."],[8,8,8,8,8,8,8,"/",9,".",8,11,9,8,"."],[".",".",".",".",".",".",".",".",".",10,".",".",".",".",10],[".",".",".",".",".",".",".",".",".",".",".",".",".",".","."],[".",".",".",".",".",".",".",".",".",".",".",".",".",".","."],[".",".",".",".",".",".",".",".",".",".",".",".",".",".","."]]],"numberofstrings":6,"notes":["E","B","G","D","A","E","B"],"capo":0,"stringnotes":["E4","B3","G3","D3","A2","E2"],"comments":["Stave 1:","Stave 2:","Stave 3:","Stave 4:","Stave 5:","Stave 6:"],"timing":[["W","W","W","W",null,"W","W","W","W",null,"W","W","W","W","W",null,"W","W","W","W","W","W",null,"W","W","W","W",null,"W","W"],["W","W","W","W","W","W","W","W","W",null,"W","W","W","W","W","W","W",null,"W","W","W","W"],["W","W","W","W","W","W","W","W","W","W","W","W","W","W","W","W"],["W","W","W","W","W","W","W","W","W","W","W","W","W","W","W","W","W","W","W"],["W","W","W","W","W","W","W","W","W","W","W","W","W","W","W","W"],["W","W","W","W","W","W","W",null,"W","W","W","W","W","W","W"]],"timingvisible":false,"tabcounter":17,"stave":1,"totalstaves":6,"instrument":"6guitar","selectedtuning":"6_standard","version":"13"}

Member for

5 days 6 hours
Submitted by askpaggie on Thu, 2022-01-13 01:58