(D PHRYGIAN DOMINANT) D STANDARD project COMPLETED

01234567891011121314151617181920212223
E
B
G
D
A
E
B
0 1 2 3 4 5 6 7 8 9 10 11 12 13 14 15 16 17 18 19 20 21 22 23
(/) Slide Up  (\) Slide Down  (h) Hammer On  (p) Pull Off  (b) Bend (r) Release (v) Vibrato

Stave 1: CLEAN INTRO

D|--------------------------------------------------------------------------------------
A|--------------0--------------------0-----------------------0--------------------0-----
F|-----------0-----0--------------0-----0-----------------0-----0--------------0-----0--
C|--------2--------------------2-----------------------2--------------------2-----------
G|-----2--------------------2-----------------------1--------------------1--------------
D|--0--------------------0-----------------------0--------------------0-----------------

Stave 2: TAPPING SECTION

D|-----------------------------------------------------------------------------------------------------------------------------------------------------------------------------------------------------
A|-----------------------------------------------------------------------------------------------------------------------------------------------------------------------------------------------------
F|-----------------------------------------------------------------------------------------------------------------------------------------------------------------------------------------------------
C|--12p5h7h8h12p8h12p7-----11p5h7h8h11p7h11p5-----12p5h7h8h12p8h12p7-----11h5h7h8h11p7h11p5-----7h9h10h14-----7h9h10h15-----7h9h10h14/15p10p9-----7h9h10h14-----7h9h10h15-----7h9h10h14p10p9p7-----19--
G|-----------------------------------------------------------------------------------------------------------------------------------------------------------------------------------------------------
D|-----------------------------------------------------------------------------------------------------------------------------------------------------------------------------------------------------

Stave 3: RIFF UNDER TAPPING SECTION

D|-----------------------------------------------------------------------------------
A|-----------------------------------------------------------------------------------
F|-----------------------------------------------------------------------------------
C|--------------------------2--------0-----------------------------------0--------2--
G|--3--------3--------------3--------2-----------3--------3--------------2--------3--
D|--1--------4-----------------------------------1--------4--------------------------

Stave 4: MAIN RIFF

D|----------------------------------------------------------------------------------------------
A|----------------------------------------------------------------------------------------------
F|----------------------------------------------------------------------------------------------
C|--3--3/4--3--------------3--3/4--3--------------3--3/4--3--------------3--3/4--3--------1--3--
G|-------------4--3--1----------------4--3-------------------4--3--1----------------4--3--------
D|----------------------------------------------------------------------------------------------

							http://www.guitartabcreator.com
Chords

Instruments
{"strings":[[["_","_","_","_","_","_","_","_","_","_","_","_","_","_","_","_","_","_","_","_","_","_","_","_","_","_","_","_"],["_","_","_","_",0,"_","_","_","_","_","_",0,"_","_","_","_","_","_","_",0,"_","_","_","_","_","_",0,"_"],["_","_","_",0,"_",0,"_","_","_","_",0,"_",0,"_","_","_","_","_",0,"_",0,"_","_","_","_",0,"_",0],["_","_",2,"_","_","_","_","_","_",2,"_","_","_","_","_","_","_",2,"_","_","_","_","_","_",2,"_","_","_"],["_",2,"_","_","_","_","_","_",2,"_","_","_","_","_","_","_",1,"_","_","_","_","_","_",1,"_","_","_","_"],[0,"_","_","_","_","_","_",0,"_","_","_","_","_","_","_",0,"_","_","_","_","_","_",0,"_","_","_","_","_"]],[["_","_","_","_","_","_","_","_","_","_","_","_","_","_","_","_","_","_","_","_","_","_","_","_","_","_","_","_","_","_","_","_","_","_","_","_","_","_","_","_","_","_","_","_","_","_","_","_","_","_","_","_","_","_","_","_","_","_","_","_","_","_","_","_","_","_","_","_","_","_","_","_","_","_","_","_","_","_","_","_","_","_","_","_","_","_","_","_","_","_","_","_","_","_","_","_","_","_","_","_","_","_","_","_","_","_","_","_","_","_","_","_","_","_","_","_","_","_","_","_","_","_","_","_","_"],["_","_","_","_","_","_","_","_","_","_","_","_","_","_","_","_","_","_","_","_","_","_","_","_","_","_","_","_","_","_","_","_","_","_","_","_","_","_","_","_","_","_","_","_","_","_","_","_","_","_","_","_","_","_","_","_","_","_","_","_","_","_","_","_","_","_","_","_","_","_","_","_","_","_","_","_","_","_","_","_","_","_","_","_","_","_","_","_","_","_","_","_","_","_","_","_","_","_","_","_","_","_","_","_","_","_","_","_","_","_","_","_","_","_","_","_","_","_","_","_","_","_","_","_","_"],["_","_","_","_","_","_","_","_","_","_","_","_","_","_","_","_","_","_","_","_","_","_","_","_","_","_","_","_","_","_","_","_","_","_","_","_","_","_","_","_","_","_","_","_","_","_","_","_","_","_","_","_","_","_","_","_","_","_","_","_","_","_","_","_","_","_","_","_","_","_","_","_","_","_","_","_","_","_","_","_","_","_","_","_","_","_","_","_","_","_","_","_","_","_","_","_","_","_","_","_","_","_","_","_","_","_","_","_","_","_","_","_","_","_","_","_","_","_","_","_","_","_","_","_","_"],[12,"p",5,"h",7,"h",8,"h",12,"p",8,"h",12,"p",7,"_",11,"p",5,"h",7,"h",8,"h",11,"p",7,"h",11,"p",5,"_",12,"p",5,"h",7,"h",8,"h",12,"p",8,"h",12,"p",7,"_",11,"h",5,"h",7,"h",8,"h",11,"p",7,"h",11,"p",5,"_",7,"h",9,"h",10,"h",14,"_",7,"h",9,"h",10,"h",15,"_",7,"h",9,"h",10,"h",14,"/",15,"p",10,"p",9,"_",7,"h",9,"h",10,"h",14,"_",7,"h",9,"h",10,"h",15,"_",7,"h",9,"h",10,"h",14,"p",10,"p",9,"p",7,"_",19],["_","_","_","_","_","_","_","_","_","_","_","_","_","_","_","_","_","_","_","_","_","_","_","_","_","_","_","_","_","_","_","_","_","_","_","_","_","_","_","_","_","_","_","_","_","_","_","_","_","_","_","_","_","_","_","_","_","_","_","_","_","_","_","_","_","_","_","_","_","_","_","_","_","_","_","_","_","_","_","_","_","_","_","_","_","_","_","_","_","_","_","_","_","_","_","_","_","_","_","_","_","_","_","_","_","_","_","_","_","_","_","_","_","_","_","_","_","_","_","_","_","_","_","_","_"],["_","_","_","_","_","_","_","_","_","_","_","_","_","_","_","_","_","_","_","_","_","_","_","_","_","_","_","_","_","_","_","_","_","_","_","_","_","_","_","_","_","_","_","_","_","_","_","_","_","_","_","_","_","_","_","_","_","_","_","_","_","_","_","_","_","_","_","_","_","_","_","_","_","_","_","_","_","_","_","_","_","_","_","_","_","_","_","_","_","_","_","_","_","_","_","_","_","_","_","_","_","_","_","_","_","_","_","_","_","_","_","_","_","_","_","_","_","_","_","_","_","_","_","_","_"]],[["_","_","_","_","_","_","_","_","_","_","_","_","_","_","_","_","_","_","_","_","_","_","_","_","_","_","_"],["_","_","_","_","_","_","_","_","_","_","_","_","_","_","_","_","_","_","_","_","_","_","_","_","_","_","_"],["_","_","_","_","_","_","_","_","_","_","_","_","_","_","_","_","_","_","_","_","_","_","_","_","_","_","_"],["_","_","_","_","_","_","_","_",2,"_","_",0,"_","_","_","_","_","_","_","_","_","_","_",0,"_","_",2],[3,"_","_",3,"_","_","_","_",3,"_","_",2,"_","_","_",3,"_","_",3,"_","_","_","_",2,"_","_",3],[1,"_","_",4,"_","_","_","_","_","_","_","_","_","_","_",1,"_","_",4,"_","_","_","_","_","_","_","_"]],[["_","_","_","_","_","_","_","_","_","_","_","_","_","_","_","_","_","_","_","_","_","_","_","_","_","_","_","_","_","_","_","_","_","_","_","_"],["_","_","_","_","_","_","_","_","_","_","_","_","_","_","_","_","_","_","_","_","_","_","_","_","_","_","_","_","_","_","_","_","_","_","_","_"],["_","_","_","_","_","_","_","_","_","_","_","_","_","_","_","_","_","_","_","_","_","_","_","_","_","_","_","_","_","_","_","_","_","_","_","_"],[3,3,"/",4,3,"_","_","_","_",3,3,"/",4,3,"_","_","_","_",3,3,"/",4,3,"_","_","_","_",3,3,"/",4,3,"_","_",1,3],["_","_","_","_","_",4,3,1,"_","_","_","_","_","_",4,3,"_","_","_","_","_","_","_",4,3,1,"_","_","_","_","_","_",4,3,"_","_"],["_","_","_","_","_","_","_","_","_","_","_","_","_","_","_","_","_","_","_","_","_","_","_","_","_","_","_","_","_","_","_","_","_","_","_","_"]]],"numberofstrings":6,"notes":["D","A","F","C","G","D"],"capo":0,"stringnotes":["D3","A2","F2","C2","G1","D1"],"comments":["Stave 1: CLEAN INTRO","Stave 2: TAPPING SECTION","Stave 3: RIFF UNDER TAPPING SECTION","Stave 4: MAIN RIFF","Stave 5:"],"timing":[["W","W","W","W","W","W","W","W","W","W","W","W","W","W","W","W","W","W","W","W","W","W","W","W","W","W","W","W","W"],["W","W","W","W","W","W","W","W","W","W","W",null,null,"W",null,"W","W","W","W","W","W","W","W","W","W","W","W","W","W","W","W","W","W","W","W","W","W","W","W","W","W","W","W","W","W","W","W","W","W","W","W","W","W","W","W","W","W","W","W","W","W","W"],null,["W","W","W","W","W","W","W","W","W","W","W","W","W","W","W","W","W","W","W","W","W","W","W","W","W","W","W","W","W","W","W","W","W","W","W","W","W"],[]],"timingvisible":false,"tabcounter":62,"stave":2,"totalstaves":4,"instrument":"6guitar","selectedtuning":"Full Step Down","version":"13"}

Member for

3 days 15 hours
Submitted by adrianpangan on Sun, 2021-11-14 14:37