Since We Met 2

(/) Slide Up  (\) Slide Down  (h) Hammer On  (p) Pull Off  (b) Bend (r) Release (v) Vibrato

E|-0h2---3p2p0---------2-4/5-7-----7---7-----7-----7-5-----2h5-5-----------
B|-------------3-------------------0-----0---------0---------------3-3---3-
G|-----0---------2---2---4---7-----7-------7-------0---------------2-2---2-
D|-----------------0-------------7---6-----------0-------0---------4-4---4-
A|-------------------------------------------------------------------------
E|-----------------------------0---------------3-------3---------2---2-2---



E|-------2h3-5-----3-----1h3-3-----3p0-------0-2-2-0-------
B|---3h5-------------------------1-----3-1h3---3-3-0-------
G|---------------0---------------0-------0-----2-2-1---2-4-
D|---------------3-----3-----------------0-----------2-----
A|---------------------------------------3-----2-----------
E|-2-----------1-----1---------0-------------------0---2-4-



E|-9-11-12p11-11-11-9-11h12-11-9----------2/2-3p2-2-------0-2-----0-------0---
B|--------------------12-----------12-----3-3-----3-----3-----3---1---1-0-----
G|-9/11-11----11-11---11----------------2---------2---2---------2-0-----1-----
D|------------------8-----------------0-------------0---------------2---------
A|--------------------11---------9--------------------------3-----3-----2---0-
E|----------------------------------------------------------------------------



E|---------4---------2---------2---------0-----------0-1-----3-------------------0---
B|-------5---5-------2-------3---3-------1-1-------1-----------3/5---5-5---5---5-----
G|-----4-------4-----2-----2-------2-----0-------2-------------------4-4---4---------
D|---6-----------6-------4-----------4---------3-----------3---------2-2---2---------
A|-4---------------4---2---------------2-3---0-----------0---------------------------
E|-------------------2---------------------------------------------4---4-4---4-------



E|--------------1-----3--------------------5h7--5--
B|-----------1--------------4--5--------5----------
G|--------2-----------------3--4-----4-------------
D|-----3-----------3-----3--1--2--2----------------
A|--0----------------------------------------------
E|--------------------------3--4-------------------
http://www.guitartabcreator.com
Guitar Tab Creator is intended to store guitar tab created through the tool. It currently does not support in-line text editing. Any text you place in here will be lost. If you need to comment on your tab, please use the "Tab Notes" section located below.