Since We Met

(/) Slide Up  (\) Slide Down  (h) Hammer On  (p) Pull Off  (b) Bend (r) Release (v) Vibrato


E|-----------0-------0---------------0-------0-0-------------------------
B|-2---2-------0-------------------3---3-----3-3-----0h2-2p0---0---------
G|-------4-------4-4---4-------4---2-----2---2-2-----2-------2-1---2-4---
D|---2-----2-------0-----0---0-----4---------4-4---2---------2---0-------
A|-0---------------------------------------------------------------------
E|-------4-------3---------3-----2---------2-----0-------------0---2-4---



E|---------------5-----2h4-------------
B|-------2-5---5-2---------3/5-------5-
G|-----2-------4-2---2-----------4h6-6-
D|---2-------2-----2-------------6-----
A|-0---------------------------4-------
E|---------4-----2---------------------
http://www.guitartabcreator.com
Guitar Tab Creator is intended to store guitar tab created through the tool. It currently does not support in-line text editing. Any text you place in here will be lost. If you need to comment on your tab, please use the "Tab Notes" section located below.