My Own

(/) Slide Up  (\) Slide Down  (h) Hammer On  (p) Pull Off  (b) Bend (r) Release (v) Vibrato
E|--2--------2-----------2-----------2-----------2--------2-----------2-----------2--5p2--5--2--5--
B|--------3-----------3-----------3--------------------3-----------3-----------3-------------------
G|-----2-----------2-----------2--------------------4-----------4-----------4----------------------
D|--------------------------------------4--2--0----------------------------------------------------
A|-----------------------------------------------2-----------2-----------2-----------2-------0-----
E|--0-----------0-----------0----------------------------------------------------------------------



E|--/7-------7--------5--------------------3--------2--------------------------------------------
B|--------0--------0-----------8-----------------0-----------0--5--------5-----------7--------5--
G|-----0--------0-----------7-----------7-----4-----------4-----------6-----------6--------6-----
D|-----------------------0-----------0-----------------------------7-----------7--------7--------
A|-----------------------------------------2-----------2--------0-----------0--------0-----------
E|--5-----------------5-----------5--------------------------------------------------------------
http://www.guitartabcreator.com
Guitar Tab Creator is intended to store guitar tab created through the tool. It currently does not support in-line text editing. Any text you place in here will be lost. If you need to comment on your tab, please use the "Tab Notes" section located below.