The Duke

(/) Slide Up  (\) Slide Down  (h) Hammer On  (p) Pull Off  (b) Bend (r) Release (v) Vibrato

E|--10--9--7-----7-----7-----5-----2h5--------------
B|---------------------------------3----3-----2-----
G|--11--9--7-----7-----7-----6-----2-------2--2-----
D|------------0-----0-----5-----5--4-------------0--
A|---------------------0----------------------------
E|---------7-----------------------0----------3-----



E|--10--9--7-----7--------7--5-----0--0h2-----------------
B|------------------------------3-------------3-----2-----
G|--11--9--7-----7--------7--6--0----------------2--2-----
D|------------0--------5--------4----------0-----------0--
A|------------------0-------------------------------------
E|---------7--------------------------0-------------4-----



E|-----0--2-----2--2-----------2-----5-----
B|--3-----3-----------------5--2--------2--
G|-----------------2-----2-----------------
D|-----------0--------2-----------4--------
A|-----------------0-----------------------
E|--------5--------------------0-----------
http://www.guitartabcreator.com
Guitar Tab Creator is intended to store guitar tab created through the tool. It currently does not support in-line text editing. Any text you place in here will be lost. If you need to comment on your tab, please use the "Tab Notes" section located below.