Drivetime

(/) Slide Up  (\) Slide Down  (h) Hammer On  (p) Pull Off  (b) Bend (r) Release (v) Vibrato


E|--------------------0----------------------4p2--0--
B|-----------------------4---------------------------
G|-----------1--------------------4\2-----2----------
D|--------4--------2-----------2---------------------
A|-----2--------4----------------------2-------------
E|--0-----------------------2------------------------



E|--------------------0----------------------4p2--7-----------7--------0-----------0--
B|-----------------------4------------------------------4--4--4-----4-----------------
G|-----------1--------------------4\2-----2-------------4--4--4--4--------------4-----
D|--------4--------2-----------2------------------------4--4-----------------6--------
A|-----2--------4----------------------2----------------------------------4-----------
E|--0-----------------------2------------------------4--------------------------------



E|--7--7-----5--5--4--2-------------------2--------
B|-----------------------------5--2h4--------0-----
G|--8--8-----6--6--4--2----------------------------
D|-------------------------------------4-----------
A|--------0-----------------4-----2----------------
E|-----------------4-----2-------------------------
http://www.guitartabcreator.com
Guitar Tab Creator is intended to store guitar tab created through the tool. It currently does not support in-line text editing. Any text you place in here will be lost. If you need to comment on your tab, please use the "Tab Notes" section located below.