antonellas birthday

(/) Slide Up  (\) Slide Down  (h) Hammer On  (p) Pull Off  (b) Bend (r) Release (v) Vibrato

E|---------12---------12---------12----------12---
B|------12---------12---------12----------12------
G|---12---------12---------12----------12---------
D|-7----------7----------7------------------------
A|----------------------------------12------------
E|------------------------------------------------



E|------------------------------12--10p7--------------0--7--------3h5--5p3\2/3--5--3--
B|----------------------12----------------8-----------0-----------4-------------------
G|----------12------12-----------------------7--------6-----------5-------------------
D|------12------12----------12------------------9-----5-----5-------------------------
A|--12---------------------------------------------0-----------0----------------------
E|------------------------------------------------------------------------------------
http://www.guitartabcreator.com
Guitar Tab Creator is intended to store guitar tab created through the tool. It currently does not support in-line text editing. Any text you place in here will be lost. If you need to comment on your tab, please use the "Tab Notes" section located below.