another

(/) Slide Up  (\) Slide Down  (h) Hammer On  (p) Pull Off  (b) Bend (r) Release (v) Vibrato
E|--4p2--------0----------------0-----0-----------
B|----------0-----------0h2-----------0--------0--
G|-------4-----------4-------------4--------4-----
D|------------------------------------------------
A|---------------------------0-----------2--------
E|----0-----------4-------------------------------



E|--4p2--------0--------0--4-7--------5--5-----------5-----
B|----------0-------------------------5--5-----7-----------
G|-------4-----------4-----4/7-----7--6--6--------6--------
D|---------------------------------------------------------
A|---------------------------------------------------------
E|----0-----------0-------------5-----------5--------------



E|-----------0-----------0-----------0-----------0-----
B|--------0-----------0-----------0-----------0--------
G|-----4-----------4-----------4-----------4-----------
D|-----------------------------------------------------
A|-----------------------------------------------------
E|--0-----------4-----------5-----------7--------------



E|--4p2--------0-----------7--------5--5-----------5-----4--4-----------0-----------0-----------0--
B|----------0-----------0-----------5--5--------7--------5--5--------5-----------2-----------0-----
G|-------4-----------4-----7-----7--6--6-----6-----------4--4-----4-----------2-----------2--------
D|-------------------------------------------------------------------------------------------------
A|-------------------------------------------------------------------------0-----------2-----------
E|----0-----------4-----------5-----------7-----------0--------4-----------------------------------
http://www.guitartabcreator.com
Guitar Tab Creator is intended to store guitar tab created through the tool. It currently does not support in-line text editing. Any text you place in here will be lost. If you need to comment on your tab, please use the "Tab Notes" section located below.