Angelina

(/) Slide Up  (\) Slide Down  (h) Hammer On  (p) Pull Off  (b) Bend (r) Release (v) Vibrato
E|--------0-----------------------------------------------0-----------------------------------
B|-----3--------------2-----------0--------------------3--------------2-----------0-----------
G|--2--------------2-----------2-----------2--------2--------------2-----------2-----------2--
D|--------------0-----------0-----------0--------0--------------0-----------0-----------0-----
A|--------------------------------------------0-----------------------------------------------
E|-----------0-----------4-----------5-----------------------0-----------4-----------5--------



E|--------0--0h2--------5-----------------------0-----------0----
B|-----3----------------2-----------3-----------2-----------2----
G|--2----------------2-----------2--4--------4-----------0--0----
D|----------------0-----------2-----------0-----------2-----2----
A|-------------------------------------------------1--------1----
E|-----------0-------------4-----------0-------------------------



E|--2--3--2-----------------------------------
B|--3--------3--------3--------3--3--3--------
G|--4--------------5--------2-----1--------0--
D|--4-----------5--------0--------------2-----
A|--2--------3-----------------------0--------
E|--------------------3-----------2-----------



E|--0h2--------5-----------------------0--------0--0-2-----3--2--2-5-----2h3p2--0----------------------
B|-------------2-----------3-----------3-----3----------------------------------------------1-3-----2--
G|----------2-----------2-----------2--0--------0--0h2-----4--2--3/6-----2------1--------1--2-4-----2--
D|-------0-----------2-----------4-----------3----------------------------------------0-----3/5-----2--
A|----------------------------2-----------1-------------0-------------0--------------------------0-----
E|--0-------------4----------------------------------------------------------------2-------------------



E|--0h2--------3-----------5-----------7-----------------7--5h7--7--5--------------------------------------0--
B|-------------3-----------5--------------------------5-----5-------5--5h7--5--3--3---------------------3-----
G|----------2-----------0-----------0--7-----------7--------7-------6--6-7--5--4--2--2p0-------------0--------
D|-------0-----------0-----------0--------------5----------------------5----3--3--0-------4p2p0h2h4-----------
A|-------------------------------------------5----------------------------------------------------------------
E|--0-------------2-----------4-----------5-----------------5---------------3-----0---------------------------
http://www.guitartabcreator.com
Guitar Tab Creator is intended to store guitar tab created through the tool. It currently does not support in-line text editing. Any text you place in here will be lost. If you need to comment on your tab, please use the "Tab Notes" section located below.