Sun-Two Door Cinema Club

(/) Slide Up  (\) Slide Down  (h) Hammer On  (p) Pull Off  (b) Bend (r) Release (v) Vibrato 

Main guitar riff
E|-----7--------------------------7-------------12-12-
B|-------8-10----------8------------8-10--------------
G|-9-9--------9-9--9-9---9----9-9--------9-9--9-------
D|----------------------------------------------------
A|----------------------------------------------------
E|----------------------------------------------------

E|-----7---------------------------------------------------]
B|-------8-10-------------10-10-10-10-10h12-12-------------]
G|-9-9--------9-9--9-9--9----------------------------------]
D|---------------------------------------------12h14-14-14-]
A|---------------------------------------------------------]
E|---------------------------------------------------------]


Guitar Blurbs in 2nd-3rd verses
E|-----------------]-------]---------------12-12-]-------7---------12-12----|
B|-----------------]-------]---------------------]--------------------------|
G|-7h9-9-9-7h9-9-9-]-7-9-9-]--9-9---9-9--9-------]--9b12-----8\9-9-------9v-|
D|-----------------]-------]---------------------]--------------------------|
A|-----------------]-------]---------------------]--------------------------|
E|-----------------]-------]---------------------]--------------------------|

CHORUS (NO GUITAR)

**Play guitar Intro again

Guitar Blurbs 4th-5th verses
E|---------|---------12-12-12-12-|---------------|-------------|--------7-7------|---
B|---------|---------------------|-----------8---|-------------|-10v-10-----10-8-|---
G|-9-7-9-7-|-9-9-9-9-------------|-------9-9---9-|-9--9--9-9-9-|-----------------|---
D|---------|---------------------|-14/2----------|-------------|-----------------|---
A|---------|---------------------|---------------|-------------|-----------------|---
E|---------|---------------------|---------------|-------------|-----------------|---


Play during 2nd chorus (This measure has to be played twice for 1 chorus)
E|------------------------------] |-------------------------------------------------------|
B|-----12-12-12-12--------------] |-------------------------------------------------------|
G|-9-9--------------9--12-12-12-] |-14-14-14-14-14-14-14-14-14-14-14-14-14-14-14-14-12-12-|
D|------------------------------] |-------------------------------------------------------|
A|------------------------------] |-------------------------------------------------------|
E|------------------------------]x3 |-------------------------------------------------------| x1

Bridge
E|-----------------------------------------------------------------------------------
B|-----------------------------------------------------------------------------------
G|--------------------------------------------------------------9-7------------------
D|-------9-7--------------9-7--------------9-7--------------9-7-------------9-7------
A|-7-7-7-----10-7---7-7-7-----10-7---7-7-7-----10-7---7-7-7-----------7-7-7-----10-7-
E|-----------------------------------------------------------------------------------



E|--------------------------------------------------|
B|--------------------------------------------------|
G|--------------------------------------------------|
D|-------9-7--------------9-7--------------9-7------|
A|-7-7-7-----10-7---7-7-7-----10-7---7-7-7-----10-7-|
E|--------------------------------------------------|

**** The Bridge has a total of 8 bars, the second time its played
(When through the mist i se the shape of you and i know,
and i know that im in love with you)
you need to omit the last 2 bars. Everything remains the same

Following this there is an "instrumental".
Play the 2nd chorus riff plus the bridge at the same time twice
(the second one is no longer instrumental, its the 3rd chorus)
(guitars are obviously overlapped)


Finish song with the first 4 bars of the bridge.
Guitar Tab Creator is intended to store guitar tab created through the tool. It currently does not support in-line text editing. Any text you place in here will be lost. If you need to comment on your tab, please use the "Tab Notes" section located below.