Animals-Muse

(/) Slide Up  (\) Slide Down  (h) Hammer On  (p) Pull Off  (b) Bend (r) Release (v) Vibrato
E|-------------------------------------------|----------------------------------------14-14-|-
B|----6-7-9-7-6h7p6--------------------------|----------16-14b16-16-16-16b14-12-11-11-------|-
G|-8v---------------8-6-8--------------------|-13b15-15-------------------------------------|-
D|------------------------8-9-11-9-8-9-8-6-8-|----------------------------------------------|-
A|-------------------------------------------|----------------------------------------------|-
E|-------------------------------------------|----------------------------------------------|-



E|--------------------------------------------|----------------|---------10-|-
B|--------------------------9------------9-11-|-------------12-|-11-9-11----|-
G|---------10v------11-------------10-11------|-13b15b13-11----|------------|-
D|-11-9-11-----9-11----9-11---9-11------------|----------------|------------|-
A|--------------------------------------------|----------------|------------|-
E|--------------------------------------------|----------------|------------|-



E|-
B|-
G|-
D|-
A|-
E|-



E|-----------------------------------------------------------------------------------
B|--------------------11--9------9---------------------------------------------------
G|----------------11---------11-----11--10h11p10--10---------------------------------
D|-------------8--------------------------------------13--11--13--11-----------------
A|------9--11---------------------------------------------------------14--13--11-----
E|--11-------------------------------------------------------------------------------



E|-------------11------------------------------------------------------------------------------------
B|----------12----14-12-14-12-11h12p11---------------------------------------11-9----9-9-------------
G|-------13----------------------------13-15-13-11-13-11-10-8-------------11------11-----11-10h11p10-
D|------------------------------------------------------------8---------8----------------------------
A|-13-14-----------------------------------------------------------9-11------------------------------
E|--------------------------------------------------------------11-----------------------------------



E|----------------------------------11-----------------------------------------------|-
B|-------------------------------12----14-12-14-12-11h12p11--------------------------|-
G|----------------------------13----------------------------13-15-13-11-13-11-10-11v-|-
D|-13-11-13-11-----------------------------------------------------------------------|-
A|-------------14-13-11-13-14--------------------------------------------------------|-
E|-----------------------------------------------------------------------------------|-



E|-------------
B|-------------
G|-10-11-13-11-
D|-------------
A|-------------
E|-------------
http://www.guitartabcreator.com
Guitar Tab Creator is intended to store guitar tab created through the tool. It currently does not support in-line text editing. Any text you place in here will be lost. If you need to comment on your tab, please use the "Tab Notes" section located below.