The Bleeding White Essence

(/) Slide Up  (\) Slide Down  (h) Hammer On  (p) Pull Off  (b) Bend (r) Release (v) Vibrato
E|---------------------------------------------------------
B|---------------------------------------------------------
G|---------------------------------------------------------
D|---------------------------------------------------------
A|-17v---20-19-17---19---17---15---17---15---13v----12v----
E|---------------------------------------------------------



E|--------------------------------------------------------
B|--------------------------------------------------------
G|--------------------------------------------------------
D|--------------------------------------------------------
A|-17v---20-19-17---19---20------------------20-19-20v----
E|----------------------------17---19---17----------------



E|------------------------------------------------------------------------------------
B|------------------------------------------------------------------------------------
G|------------------------------------------------------------------------------------
D|------------------------------------------------------------------------------------
A|-17v---20-19-17---19---17---15---17---15---13v-----12v----13---15---13---12v---10---
E|------------------------------------------------------------------------------------



E|---------------
B|---------------
G|---------------
D|---------------
A|-10/13---12v---
E|---------------



E|-------------------------------------------
B|-------------------------------------------
G|-------------------------------------------
D|-------------------------------------------
A|-17---19---20---19---17---15---15/17-------
E|---------------------------------------17v-



E|-------------------------------------------------------------------------------------------
B|-------------------------------------------------------------------------------------------
G|-------------------------------------------------------------------------------------------
D|-------------------------------------------------------------------------------------------
A|--17------19------20------19------17------15----------------------20-----------------------
E|--------------------------------------------------19------17--------------20------19v------
http://www.guitartabcreator.com
Guitar Tab Creator is intended to store guitar tab created through the tool. It currently does not support in-line text editing. Any text you place in here will be lost. If you need to comment on your tab, please use the "Tab Notes" section located below.