Traffic Jam Man

(/) Slide Up  (\) Slide Down  (h) Hammer On  (p) Pull Off  (b) Bend (r) Release (v) Vibrato


E|------------------------------------------------
B|------------------------------------------------
G|------------------------------------------------
D|-----4--2p0--0-----2----------------------------
A|--5-------------4-----2-----4--5p4--4-----2-----
E|-------------------------5-------------4-----0--



E|-----------------------------------------
B|-----------------------------------------
G|-----------------------------4--4--4--4--
D|-----------2-----------------4--4--4--4--
A|--5--5--5-----5--5--5--5--5--2--2--2--2--
E|-----------------------------------------



E|--------------------------------------------
B|--------------------------------------------
G|-----------------------------2--2--2--2-----
D|-----------2-----------------2-----2--2-----
A|--5--5--5-----5--5--5--5--5--0--0--0--0-----
E|--------------------------------------------



E|-----------------------------------------
B|-----------------------------------------
G|-----------------------------0--0--0--0--
D|-----------2-----------------0--0--0--0--
A|--5--5--5-----5--5--5--5--5--------------
E|-----------------------------3--3--3--3--



E|--------------------------------------------
B|--------------------------------5--5--5--5--
G|--------------------------------6--6--6--6--
D|-----4-----------4--4--5--5--7--7--7--7--7--
A|--5-----5--5--5-----------------------------
E|--------------------------------------------
http://www.guitartabcreator.com
Guitar Tab Creator is intended to store guitar tab created through the tool. It currently does not support in-line text editing. Any text you place in here will be lost. If you need to comment on your tab, please use the "Tab Notes" section located below.