Lord Byron

(/) Slide Up  (\) Slide Down  (h) Hammer On  (p) Pull Off  (b) Bend (r) Release (v) Vibrato
E|--------------8--7--------------------8--7--------------------8--7-----------------------
B|--------------------8--7--------------------8--7--------------------8--7-----------------
G|-----------------------------------------------------------------------------------------
D|--7--7--7--7--------------7--7--7--7--------------7--7--7--7--------------7--7--7--7-----
A|--6--7--6--7--------------6--7--6--7--------------6--7--6--7--------------6--7--6--7-----
E|--------------------------6--------------------------------------------------------------


Verse 1
Don’t look good on the dance floor
Who cares if I look good in a suit
demonstration actor soul
Or a summer girl, wearing winter boots (riff 2)

Riff 2
E|--8--7--------------------
B|--------8--7--------------
G|--------------7--6--------
D|--------------------7--6--
A|--------------------------
E|--------------------------

Riff 3
E|-----------------------------------------------------------
B|-----------------------------------------------------------
G|--7--7--6--7--6--5--5--4--5--4--2--2--0--2--2--5--4--------
D|--------------------------------2--2--0--2--2--------5--4--
A|--5--5--5--5--5--3--3--3--3--3--0--0-----0--0--------------
E|--------------------------------------3--------------------

Verse 2
A night time shade of acceptance
The true tale embellished by lies
Two dead fam on father’s day
Still thoughts recently untied (riff 2)


E|--------------------------------
B|--------------------------------
G|--7--7--6--7--6--5--5--4--5--4--
D|--------------------------------
A|--5--5--5--5--5--3--3--3--3--3--
E|--------------------------------

CHORUS
A
I’m not gonna pull a fast one
C
Or believe in a slogan
D
I’m gonna be the right one
G
The best song on the album
A
A cocktail with Lord Byron
C
If only I could find him
D
So I’d have nothing to tell him
E
And we’d just drink


3rd Verse
I read poems years ago
Thought I had a cardinal rhyme
And a pair of different eyes
But it was the glasses that made me wise (riff 2)


This fill to end Riff 3
E|-----------------------
B|-----------------------
G|7-7--9--9--10--10--12--
D|-----------------------
A|5-5--7--7--8---8---10--
E|-----------------------

4th Verse
A morning glimpse of business
Irony that’s just coincidence
I can still try to get bored
And cross it off my bucket list

Riff 3 with abrupt ending direct in to chorus

A
I'm might do things in moderation
C
while getting a good riff in
D
I'll try to give a good listen
G
Even if it's pure bullshit
A
I swear I'm gonna drink with Lord Byron
C
but that doesn't mean i'm dyin'
D
hope to get the courage to ask him
E
What are you doing here?


http://www.guitartabcreator.com
Guitar Tab Creator is intended to store guitar tab created through the tool. It currently does not support in-line text editing. Any text you place in here will be lost. If you need to comment on your tab, please use the "Tab Notes" section located below.