Anymore

(/) Slide Up  (\) Slide Down  (h) Hammer On  (p) Pull Off  (b) Bend (r) Release (v) Vibrato


E|-----------------------------------------------------------------------
B|-----------------------------------------------------------------------
G|--7p6--7p6--7p6--7p6--7p6--7p6--7p6--7p6--7p6--7p6--7p6--7p6-----------
D|-----------------------------------------------------------------------
A|-----------------------------------------------------------------------
E|-----------------------------------------------------------------------



E|----------------------------------------------------------------------------------
B|----------------------------------------------------------------------------------
G|--9p6-------9p6-------9p6-------9p6------------7p6-------7p6-------7p6-------7p6--
D|-------7p0-------7p0-------7p0-------7p0--9p0-------9p0-------9p0-------9p0-------
A|----------------------------------------------------------------------------------
E|----------------------------------------------------------------------------------



E|-----------------------------------------------------------------------
B|-----------------------------------------------------------------------
G|--9-----9-----9-----9-----9-----9-----9-----9-----------8-----------9--
D|-----7-----7-----7-----7-----7-----7-----7--------9-----------9--------
A|-----------------------------------------------7-----7-----7-----7-----
E|-----------------------------------------------------------------------



E|----------------------------------------------------------------------------
B|-----------------------------------8-----------10-----------8-----------10--
G|-----------8-----------9-----9-----------9------------9-----------9---------
D|-----9-----------9--------7-----7-----7-----7------7-----7-----7-----7------
A|--7-----7-----7-----7-------------------------------------------------------
E|----------------------------------------------------------------------------



E|---------------------------------------------------------------------------
B|-----------------------------------------------------------8-----------10--
G|-----------8-----------9-----------8-----------9-----9-----------9---------
D|-----9-----------9-----------9-----------9--------7-----7-----7-----7------
A|--7-----7-----7-----7-----7-----7-----7-----7------------------------------
E|---------------------------------------------------------------------------



E|-------------------------------------8-----10------------------8-----10--
B|-----------8-----10-----8-----10------------------8-----10---------------
G|-----9---------------7-----7------7-----7------7-----7------7-----7------
D|--7-----7-----7----------------------------------------------------------
A|-------------------------------------------------------------------------
E|-------------------------------------------------------------------------
http://www.guitartabcreator.com
Guitar Tab Creator is intended to store guitar tab created through the tool. It currently does not support in-line text editing. Any text you place in here will be lost. If you need to comment on your tab, please use the "Tab Notes" section located below.