Zacs Music Assinment composition

(/) Slide Up  (\) Slide Down  (h) Hammer On  (p) Pull Off  (b) Bend (r) Release (v) Vibrato
guitar 1 (main)
E|-------------------------------------------------- x14
B|--------------------------------------------------
G|--------4--4--------------------------------------
D|--------------5--5--4--4--2--2--------------------
A|--2--2--------------------------5--5--4--5--4--0--
E|--------------------------------------------------


guitar 2 (harmony)
E|--------------------------------------------------x12
B|--7--7--5--5--------------------------------------
G|--------------7--7--6--6--4--4--------4--4--4--4--
D|--------------------------------7--7--------------
A|--------------------------------------------------
E|--------------------------------------------------


guitar 3 (chords)
E|-----------------x12
B|-----------------
G|-----------------
D|--4--7--9--------
A|--2--5--7--5--7--
E|-----------3--5--
http://www.guitartabcreator.com
Guitar Tab Creator is intended to store guitar tab created through the tool. It currently does not support in-line text editing. Any text you place in here will be lost. If you need to comment on your tab, please use the "Tab Notes" section located below.