Accidental Hero

(/) Slide Up  (\) Slide Down  (h) Hammer On  (p) Pull Off  (b) Bend (r) Release (v) Vibrato
E|--14--12----------
B|----------15--12--
G|------------------
D|------------------
A|------------------
E|------------------



E|--------------------------15--14--12--------------------------------------14--17/19--17/19--
B|--15--14--12--15--14--12--------------14--15--14--15--14--12--15--14--12--------------------
G|--------------------------------------------------------------------------------------------
D|--------------------------------------------------------------------------------------------
A|--------------------------------------------------------------------------------------------
E|--------------------------------------------------------------------------------------------



E|--17--15--14--17--15--14--19--
B|------------------------------
G|------------------------------
D|------------------------------
A|------------------------------
E|------------------------------



E|--2--3--5--2--3--2--3--5--2--3--5--
B|--3--3--7--2--3--3--3--7--2--3--5--
G|--4--4--7--2--4--4--4--7--2--4--6--
D|--4--5--7--4--5--4--5--7--4--5--7--
A|--2--5--5--4--5--2--5--5--4--5--7--
E|-----3-----2--3-----3-----2--3--5--



E|--2--5--7--3--5--2--5--7--3--5--
B|--3--7--8--3--5--3--7--8--3--5--
G|--4--7--9--4--6--4--7--9--4--6--
D|--4--7--9--5--7--4--7--9--5--7--
A|--2--5--7--5--7--2--5--7--5--7--
E|-----------3--5-----------3--5--



E|--------------------------------------------------------------------------------------------------
B|--------------------------------------------------------------------------------------------------
G|--------------------------------------------------------------------------------------------------
D|--4--4--4--4--4--4--4--4--------------------------7--7--7--7--7--7--7--7--------------------------
A|--2--2--2--2--2--2--2--2--5--5--5--5--5--5--5--5--5--5--5--5--5--5--5--5--4--4--4--4--5--5--5--5--
E|--------------------------3--3--3--3--3--3--3--3--------------------------2--2--2--2--3--3--3--3--



E|-----------------------------------------------------------------------------------------------------------------------------------------------------------
B|-----------------------------------------------------------------------------------------------------------------------------------------------------------
G|-----------------------------------------------------------------------------------------------------------------------------------------------------------
D|-----------------------------------------------------------------------------------------------------------------------------------------------------------
A|--2--2--2--2--2--2--2--2--------------------------5--5--5--5--5--5--5--5--------------------------2--2--2--2--2--2--2--2--------------------------5--5--5--
E|--------------------------3--3--3--3--3--3--3--3--------------------------2--2--2--2--3--3--3--3--------------------------3--3--3--3--3--3--3--3-----------



E|--------------------------------------------------------------------------------------------------
B|--------------------------------------------------------------------------------------------------
G|--------------------------------------------------------------------------------------------------
D|--------------4--4--------------------------------------------4--4--------------------------------
A|--2--2--2--2--------5--5--------------5--5--4--4--2--2--2--2--------5--5--------------5--5--4--4--
E|--------------------------5--5--5--5--------------------------------------3--3--3--3--------------



E|------------------------------------------------------------------------------------------------------------
B|--------7--7--10--10--8--8--7--7--7--7--10--10--8--8--------7--7--10--10--8--8--7--7--7--7--10--10--12--12--
G|--7--7------------------------------------------------7--7--------------------------------------------------
D|------------------------------------------------------------------------------------------------------------
A|------------------------------------------------------------------------------------------------------------
E|------------------------------------------------------------------------------------------------------------



E|--12------12------14------14------15------15------14------14------
B|------12------12------12------12------12------12------12------12--
G|------------------------------------------------------------------
D|------------------------------------------------------------------
A|------------------------------------------------------------------
E|------------------------------------------------------------------
http://www.guitartabcreator.com
Guitar Tab Creator is intended to store guitar tab created through the tool. It currently does not support in-line text editing. Any text you place in here will be lost. If you need to comment on your tab, please use the "Tab Notes" section located below.